Tự Học Đàn Cải Lương Guitar - Vài Điễm Căn Bản & Và một Số Bài Bản Đàn (Có mp3)

Thay đổi trang: < 123456789 > | Trang 2 của 9 trang, bài viết từ 16 đến 30 trên tổng số 123 bài trong đề mục
Tác giả Bài
GuitarVongCo

  • Số bài : 96
  • Điểm thưởng : 0
  • Từ: 06.01.2006
  • Trạng thái: offline
Guitar Vọng Cổ câu 5 6 - Đào sang Kép cao (La) #4 18.02.2006 00:54:53 (permalink)
Guitar Vọng Cổ câu 5 6 - Đào sang Kép cao (La) #4



Tips để Copy & Paste vào trong Word or Wordpad: Dùng font: Courier New, size 10.


D-|----------0-4-4h7-9-0-7------0-3-0--------------------0--------------------
A-|-5-----0-5-------------8--0-------1-3-1-0-5-3--------0-3-------------------
D-|------0-----------------7--3-----------------5~-3-0-3---5~-3-0h3-0---------
G-|---------------------------------------------------------------------------
D-|---------------------------------------------------------------------------
A-|16-//-/--4-/------/---/-8--/----/-----/-----12----/--/--/-------16---------

D-|-2-3-2-0-3---3-0-------3-0-3-0---0-----0-12-10-12-15-10-12-9--12------------
A-|--------3-0-3---5-3---------------3~1-0---------------------12--9-12-10~10--
D-|-------------------5~-3-------1b0-----------------------------------------12
G-|----------------------------------------------------------------------------
D-|----------------------------------------------------------------------------
A-|-/------/----/-----4---/-----/---/----8------/-----------/------/-------12--

D-|-0-5-4-0-0-4h5-7-9^7-------------------------------------------------------
A-|--------5------------------------------------------------------------------
D-|---------------------------------------------------------------------------
G-|---------------------------------------------------------------------------
D-|---------------------------------------------------------------------------
A-|-/-----/-----/----16-------------------------------------------------------

D-|-7-7-8-7---7-0-8-7-0-7-10-12---12-0-12-9--------12-9-----------0---------------
A-|--------8-8-----------------10~---------12-10~-9----12-12-10~-----9-10~12-14-12
D-|---------7---------------------------------------------------12-12-------------
G-|-------------------------------------------------------------------------------
D-|-------------------------------------------------------------------------------
A-|-/-----/-/-4-----/---------/----/--------8-----/---/----/----12--/-/--/------16
Xề
D-|-------------12-14-15-14-12-14-12--------12-15-12-0-12-0-12-9---------10-12----
A-|-121212-12-12--------------------15~12-15--------------------12-10~-12---------
D-|---------------------------------------------------------------------------12--
G-|-------------------------------------------------------------------------------
D-|-------------------------------------------------------------------------------
A-|------/----/-------/------------4----/----------/---/--------5-------/----/----

D-|-12^9^7^-------------7-----------------------------------------------------
A-|--------8-7h8n-8-7-5~------------------------------------------------------
D-|----------------------7----------------------------------------------------
G-|---------------------------------------------------------------------------
D-|---------------------------------------------------------------------------
A-|-/---12---/----/---/-16----------------------------------------------------
Xề
D-|-------------------------------7-9-10--10-7-10-9-7--7-9-10----7-10-7--7----
A-|----------------------7-10-7-10-------------------10------7-10---------10-9
D-|-7-77777--10-7-10-7-10---------------10------------------------------------
G-|--------------------------------------------------------------------10-----
D-|---------------------------------------------------------------------------
A-|-/---/-------/--------4--------/------/---/--------8------/--------/--/----

D-|---------------------------------------------------------------------------
A-|-7-10-9-7-0--------------7-------------------------------------------------
D-|-----------10-9-7-5~-7h9---------------------------------------------------
G-|--------------------------9------------------------------------------------
D-|---------------------------------------------------------------------------
A-|12--------/-------/----/-16------------------------------------------------

D-|----------------------------4-7---------4-7-4-7----------------------------
A-|--------3n-0-3-0-0-3-3-0-4-7---4-7-5~5-0-------0-4h5-7-9^7-----------------
D-|----5-5---------5---2-----------------7------------------------------------
G-|--5------------------------------------------------------------------------
D-|---------------------------------------------------------------------------
A-|//-/-4-/-/-----/----8--/---/---/----12-/----/------/-----16----------------
Xang
D-|-7--------10--10-7-9-10-9-7-10-9-7--7-9-10----7-10-7-----------4-4-7-------
A-|--9n-9-7-7------------------------10------7-10------9^7-5~4-0-4-----0-4---5~
D-|------------10---------------------------------------------7-7----------7--
G-|--------9------------------------------------------------------------------
D-|---------------------------------------------------------------------------
A-|-/--/--/-4---/---/--------/--------8------/--------/--/---12-/-/----/----16
Cống
D-|----------------------------------4-7---------4-7------7-------------------
A-|-5~5~5~-0---3-0----3-3-0-3-3-0-4-7---4-7-5~-0----4-5~-7-9------------------
D-|---------0h2------5-5-5---2----------------7-7-----------------------------
G-|---------------5-5---------------------------------------------------------
D-|---------------------------------------------------------------------------
A-|--/--/----/---4--/-/-/----8--/---/---/----12-/---/---/--16-----------------

D-|-----------7-9-11^-7-9-11-9-7-----------7-4-4-7---------4-7----------------
A-|-9n-9-7-777------------------9-8-7-07-07-------4-7-5~-0----4-5~-7-9^7------
D-|-----------------------------------------------------7-7-------------------
G-|-------9-------------------------------------------------------------------
D-|---------------------------------------------------------------------------
A-|-/--/--/--4--/-----/--------/----8--/-----/----/----12-/---/---/---16------
Xề
D-|--------7-9-10-9-7-9-7--------7-10-7--10-7------------5-7--7^-4^-2^--------
A-|-777-7-7--------------10~-7-10------------9-8-7-0-7-07---5~--------3-2h3n3-
D-|------------------------------------10-------------------------------------
G-|---------------------------------------------------------------------------
D-|---------------------------------------------------------------------------
A-|---/---/-----/-------4----/--------/---/------8---/-----/--/----12---/---/-

D-|----2----------------------------------------------------------------------
A-|-2-0-----------------------------------------------------------------------
D-|-----2---------------------------------------------------------------------
G-|---------------------------------------------------------------------------
D-|---------------------------------------------------------------------------
A-|---/-16--------------------------------------------------------------------

D-|---------10--10-7-9-10-9-7-----------7-4-4-7---------4-7-------------------
A-|-0--3-0-7-----------------9-8-7-07-07-------4-7-5~-0----4-5~-7-9^7---------
D-|---5---7---10-------------------------------------7-7----------------------
G-|--5------------------------------------------------------------------------
D-|---------------------------------------------------------------------------
A-|-/-/--/-4--/----/--------/----8--/-----/----/----12-/---/---/----16--------

D-|11-9--7-911^7-------7-10-7-----------------5-7-9-10-9-7---------------10---------
A-|----11-------10~7-10------9-7-0-3-3-0-3-5-7-----------10-9-7--------12-----------
D-|-11------------------------------2--------------------------10-7->10----12~->10-7
G-|---------------------------------------------------------------------------------
D-|---------------------------------------------------------------------------------
A-|--/--/--/---4---/--------/----/--8--/------/--------/-----12---/-----/---/------16
<bài viết được chỉnh sửa lúc 12.09.2008 11:57:10 bởi GuitarVongCo >
 
#16
    GuitarVongCo

    • Số bài : 96
    • Điểm thưởng : 0
    • Từ: 06.01.2006
    • Trạng thái: offline
    Guitar Vọng Cổ Câu 5 6 - Kép cao (La) sang Đào 08.03.2006 01:41:12 (permalink)
    Guitar Vọng Cổ Câu 5 6 - Kép cao (La) sang Đào



    Tips để Copy & Paste vào trong Word or Wordpad: Dùng font: Courier New, size 10.


    D-|---------7-7-----3-2-2--------7-7-4-7--------------------------------------
    A-|------------7-5~0---0-3-3-0--7-------7-0----7-7----------------------------
    D-|-7----7-7--------------2-------7--------7-10---10-7h10-7-------------------
    G-|---------------------------------------------9-----------------------------
    D-|---------------------------------------------------------------------------
    A-|16-//-/-4--/--/----/---8--/---/-/---12--/---/-/-------16-------------------

    D-|----10-7-9-10-9-7--------7-10-7--7-------------7-4-4-7---------4-7---------
    A-|-7-10------------10~-7-10---------9-8-7-0-7-0-7-------4-7-5~-0----4-5~7-9^7
    D-|-------------------------------10---------------------------7-7------------
    G-|---------------------------------------------------------------------------
    D-|---------------------------------------------------------------------------
    A-|/--/---/--------4----/--------/--/----8---/------/----/----12-/---/--/----16

    D-|-7------------10-7-10-9-7----------7-4-4-7---------4-7---------------------
    A-|--9-7-777----7-----------10-9-7-0-7-------4-7-5~-0----4-5~7-9^7------------
    D-|---------10-7-----------------------------------7-7------------------------
    G-|-----9---------------------------------------------------------------------
    D-|---------------------------------------------------------------------------
    A-|-/-/-/--4---/--/------/-------8---/--/----/----12-/---/--/----16-----------
    Xề
    D-|-------7-9-10-9-7-9-7--------7-10-7--7-------------5-7-7^4^2---------------
    A-|777-7-7--------------10~-7-10---------9-8-7-0-7-0-7---5~----3-2h3n-3-2-0---
    D-|-----------------------------------10-----------------------------------3-2
    G-|---------------------------------------------------------------------------
    D-|---------------------------------------------------------------------------
    A-|--/---/-----/-------/----/--------/--/----/---/------/-/---/--/----/---/--16
    Xề

    D-|--------------0-----3-0-3-2-0----------------------------------------------
    A-|-------------0-5--0----------1-------1-3-1-0-5-3--0--0-0-------------------
    D-|-2-2-3-2-3-0----5~-3----------3-3-0-3-----------5~-3~-2---0-2-0-2-3--------
    G-|-------------------------------3------------------------5~---------2-------
    D-|------------0--------------------------------------------------------------
    A-|-/-----/----/-4-/--/--/------8-/--/------/-----12--/----/---/-----16-------

    D-|---------------------------------------3-5-3-20-3-2-0-0---0-3-2-0---------0--
    A-|--------------------------------3-5-3-5--------------3-0-3-------1-3-1-0-5-5-
    D-|-3-2-0-3-2-0-3-2-0-------3-5-3-5---------------------------------------------
    G-|------------------5-7-5-7----------------------------------------------------
    D-|-----------------------------------------------------------------------------
    A-|---/-------/------/------4------/------/------/------8----/------/-------/---

    D-|-------------------------7-9^-7--------------------------------------------
    A-|-3-----------5-8-5-5-8->9--------------------------------------------------
    D-|--5-3-0-3-5-7-----7--------------------------------------------------------
    G-|---------------------------------------------------------------------------
    D-|---------------------------------------------------------------------------
    A-|-12-------/------/------/----16--------------------------------------------
    Xang
    D-|-7-787-7-0-7-10-12---15^12-14-15^14-15-14-12--12-14-15----12-15-12---------
    A-|------8-----------10~-----------------------15-------12-15--------14^12-10~
    D-|---------------------------------------------------------------------------
    G-|---------------------------------------------------------------------------
    D-|---------------------------------------------------------------------------
    A-|-/---/-/---------4----/-----/-----/----------8--------/----------/----/----

    D-|----0-12-9-12-9----0-------------------------------------------------------
    A-|-9-------------12-9-10~----------------------------------------------------
    D-|--12-----------------------------------------------------------------------
    G-|---------------------------------------------------------------------------
    D-|---------------------------------------------------------------------------
    A-|--12---/------/---/-16-----------------------------------------------------
    Cống

    D-|------------------3-0-3-0---0----------------------------------------0-2-3-
    A-|-10~10~10~9n0-3n-3-----------3~1-0-----------5-8-7-5--------------0-1-----1
    D-|-------------------3-----1p0------5-3-0-3-5-7-------8-7-5~-0-0-3-5~--------
    G-|---------------------------------------------------------------------------
    D-|----------------------------------------------------------0----------------
    A-|---/----/---/----4-/----/---/----8----/------/------/-----12-/---/---/---16

    D-|-0---------3-0-3-0---0-------------------0-7-4-7-0-4h5-7-9^7---------------
    A-|--1n~0-000------------3~1-0-----0---------5--------------------------------
    D-|----------3-------1b0------0-3-5~7-7-5~-0----------------------------------
    G-|------2--------------------------------------------------------------------
    D-|---------------------------------------------------------------------------
    A-|-/--/-/--4-/-----/---/----8--/--/--/---12-/--/-------/-----12--------------
    Xề
    D-|-777-7-7---7-0-7-10-12------10-12--12-9-12------0-0-3-0--------------------
    A-|---------8------------10~-12--------------12-8-7-3~----3~-1-0--------------
    D-|---------------------------------12--------------------------0-5n~3-5n-5-3-
    G-|--------------------------------------------------------------------------2
    D-|---------------------------------------------------------------------------
    A-|---/---/---/--------4------/----/---/------8---/-/----/--12--/----/----/--16

    D-|----------------------------35320--0-2-3----------------0-7-4-7-0-4h5-7-9^7
    A-|---------------------3-5-3-5-----3~-----1---1^0----------5-----------------
    D-|----------3-5-3-5-3-5--------------------3-3---5-3-0-3-0-------------------
    G-|-2-2-5-2-5--------------------------------3--------------------------------
    D-|---------------------------------------------------------------------------
    A-|-/-----/------/------4------/---/-/-----8-/-/--/------12-/--/-------/----16

    D-|-777-7-7-7-0-7-10-12---12-9-12--0-12----------------3-0-3-0---0--3---------
    A-|--------8-----------10~-------12-----9-12-10~-0-3n-3-------1-0-5----------5
    D-|-----------------------------------------------------3------------5~-3-0h3-
    G-|---------------------------------------------------------------------------
    D-|---------------------------------------------------------------------------
    A-|---/---/-/---------4----/------/-----/--------8----/-/----/-12-/--/----/--16
    <bài viết được chỉnh sửa lúc 04.10.2007 02:44:19 bởi GuitarVongCo >
     
    #17
      GuitarVongCo

      • Số bài : 96
      • Điểm thưởng : 0
      • Từ: 06.01.2006
      • Trạng thái: offline
      Guitar vọng cổ cau 3, 4-dây đào sang kép cao (La) 18.03.2006 00:35:38 (permalink)
      Guitar vọng cổ cau 3, 4-dây đào sang kép cao (La)




      Tips để Copy & Paste vào trong Word or Wordpad: Dùng font: Courier New, size 10.



      D-|---------0--------------------0-320--------------0-------------------------
      A-|-5---5-0---3~-1-0----0-------0-----5-3--------0-3--3-----------------------
      D-|------0----------5~-0-3-3-0-3---------5~-3-0-3------5~3-0h3-0--------------
      G-|-----------------------2---------------------------------------------------
      D-|---------------------------------------------------------------------------
      A-|16-//-/--4----/--/---/-8--/--/---/---12----/--/-----/------16--------------

      D-|-2-3-2-0-3---3-0-------3-0-3-0---0------0-12-10-12-15-10-12-9--12----------
      A-|--------3-0-3---5-3---------------3~-1-0---------------------12--9-12-10~10
      D-|-------------------5~-3-------1b0------------------------------------------12
      G-|---------------------------------------------------------------------------
      D-|---------------------------------------------------------------------------
      A-|-1------/----/-----4---/-----/---/-----8-----/------------/------/-------12

      D-|-0-5-4-0-0-4h5-7-9^7-------------------------------------------------------
      A-|--------5------------------------------------------------------------------
      D-|---------------------------------------------------------------------------
      G-|---------------------------------------------------------------------------
      D-|---------------------------------------------------------------------------
      A-|-/-----/-----/-----16------------------------------------------------------

      D-|-7-7-8-7-7-0-7-10-12------10-12-0-12-0-12-9--------12-9-9-12---------------
      A-|--------8-----------10~-12-----------------12-10~-9---------9-12-10~-------
      D-|----------------------------------------------------------------------12---
      G-|---------------------------------------------------------------------------
      D-|---------------------------------------------------------------------------
      A-|-/-----/-/--------4------/----/----/-------8------/---/-----/---------12---

      D-|-0--9-12-----7-9^7---------------------------------------------------------
      A-|--------9-10~--------------------------------------------------------------
      D-|--12-----------------------------------------------------------------------
      G-|---------------------------------------------------------------------------
      D-|---------------------------------------------------------------------------
      A-|---/----/---/---16---------------------------------------------------------

      D-|-777-7-7-12-14-15-14-12-14-12---------12-15-12---------------3-0-3-0---0-3-
      A-|-----------------------------15~-12-15--------14^12-10~-0-0h3-------1-0-5--
      D-|--------------------------------------------------------------3------------
      G-|---------------------------------------------------------------------------
      D-|---------------------------------------------------------------------------
      A-|---1---/-------/-----------4-----/----------/---/-------8---/-/----/-12-/--

      D-|---------------------------------------------------------------------------
      A-|----------5----------------------------------------------------------------
      D-|-5~-3-0h3------------------------------------------------------------------
      G-|---------------------------------------------------------------------------
      D-|---------------------------------------------------------------------------
      A-|-/----/---16---------------------------------------------------------------
      Hò (câu 4 - Nguyên câu)
      D-|-2-----------7-5----10--10-7-10-7--7-10----12-10-9-7--10-9-7---------------
      A-|--3-3-0-3-5-7---5->7-------------10----7->10----------------10-9-7-10-9-7-0
      D-|---2------------------10----------------------------10---------------------
      G-|---------------------------------------------------------------------------
      D-|---------------------------------------------------------------------------
      A-|-/-/--/------4-------/---/------/------8-----/-------/---/------12--------/

      D-|---------------------------------------------------------------------------
      A-|-3-2-0---0-3-5-7-5~--------------------------------------------------------
      D-|------3-2----------7-------------------------------------------------------
      G-|---------------------------------------------------------------------------
      D-|---------------------------------------------------------------------------
      A-|------/------/-----16------------------------------------------------------
      Xề
      D-|-----10--10-9-7-7--------7-10-7--7-------------5-7--7^4^2-----2------------
      A-|-5h7-------------10~-7-10---------9^8-7-0-7-0-7---5~-----3-0h2-3p2-0-------
      D-|-------10----------------------10-----------------------------------3^2----
      G-|---------------------------------------------------------------------------
      D-|---------------------------------------------------------------------------
      A-|----/---/--/----4----/--------/--/----5---/------/--/--12-/---/--/----16---
      Xề
      D-|--------------------------2-5-2-0------------------------------------------
      A-|------------------2-5-2-5---------3-2h3p2-0--------------------------------
      D-|-2-22222-5-2-5-2-5-------------------------5~-3--5-3-0-2-3-0-2-3-2-0-------
      G-|-----------------------------------------------5--------------------5-4-5-4
      D-|---------------------------------------------------------------------------
      A-|-/---/-----/------4-------/-------/-----/-----8-/--/-----/------12--/-----/

      D-|---------------------------------------------------------------------------
      A-|---------------------------------------------------------------------------
      D-|---------------------------------------------------------------------------
      G-|-2-0-2-4-0-2-0-------------------------------------------------------------
      D-|--------------2------------------------------------------------------------
      A-|-------/-----16------------------------------------------------------------

      D-|-------------------7-5----10-9-7--------------7-4-4-7----------4-7---------
      A-|------0---3-0-3-5-7---5->7------9-8-7-0-7-0-7--------4-7-5n-5~0---4-5~7-9^7
      D-|-----3-2-----------------------------------------------------7-------------
      G-|----5----------------------------------------------------------------------
      D-|-2h5-----------------------------------------------------------------------
      A-|---/-/-/----4------/-------/---/----8---/-------/----/-----12-/---/--/---16
      Xang
      D-|-7------------10-7-10-9-7--------------7-4-4-7------------4-4-7------------
      A-|--9-7-777----7-----------10-9-7-0-7-0-7-------4-7-5~---0-4-----0-4---5~----
      D-|---------10-7-----------------------------------------7-7----------7-------
      G-|-----9---------------------------------------------------------------------
      D-|---------------------------------------------------------------------------
      A-|-/-/-/--4---/--/------/-------8---/------/----/------12-/-/----/-----16----
      Cống
      D-|-------------5h7-5-5-7-9-10-9-1097-7-9-10----7-10-7-----------4-7-----7----
      A-|-5~-5~-5~-4-7-----7--------------10------7-10------9^7-5~-4-0----4-5~7-9---
      D-|-----------------------------------------------------------7-7-------------
      G-|---------------------------------------------------------------------------
      D-|---------------------------------------------------------------------------
      A-|--/----/----/----4-/---/----/-----8------/--------/--/----12-/---/--/--16--

      D-|-7------------10---7-10-9-7---------7-4-4-7---------4-7--------------------
      A-|--9-7-777----7-------------9-8-7-0-7-------4-7-5~-0----4-5~7-9^7-----------
      D-|---------10-7------------------------------------7-7-----------------------
      G-|-----9---------------------------------------------------------------------
      D-|---------------------------------------------------------------------------
      A-|-/-/-/--4---/--/--------/------8---/--/----/----12-/---/--/----16----------

      D-|--------7-9-10-9-7-9-7--------7-10-7---7-9-10-------7--7-10-7--------7-10--
      A-|-777-7-7--------------10~-7-10------10~-----------10~--------10~-7-10~---7-
      D-|---------------------------------------------10n10-------------------------
      G-|---------------------------------------------------------------------------
      D-|---------------------------------------------------------------------------
      A-|---/---/-----/-------4----/--------/---/------8--/--/-------/---12---/---/-

      D-|----------7----------------------------------------------------------------
      A-|---10----------------------------------------------------------------------
      D-|------10n------------------------------------------------------------------
      G-|---------------------------------------------------------------------------
      D-|---------------------------------------------------------------------------
      A-|-------/--16---------------------------------------------------------------
      <bài viết được chỉnh sửa lúc 12.09.2008 11:59:16 bởi GuitarVongCo >
       
      #18
        GuitarVongCo

        • Số bài : 96
        • Điểm thưởng : 0
        • Từ: 06.01.2006
        • Trạng thái: offline
        Guitar Vọng cổ câu 1, 2 - Dây Đào 18.03.2006 00:40:39 (permalink)
        Guitar Vọng cổ câu 1, 2 - Dây Đào (Câu này gom từ các câu khác lại không cần mp3 quí vị có thể đàn dể dàng. Đây là 1 trong những cách ráp nối.)

        Tips để Copy & Paste vào trong Word or Wordpad: Dùng font: Courier New, size 10.


        D-|-----------12-9-----0-7---0-3-0-3-0-------------------0--------------------
        A-|---------------12-10~--9-0---------1-3-1-0-5-3-------0-3-------------------
        D-|-12---12-12------------------3----------------5~3-0-3---5--3-0h3-0---------
        G-|---------------------------------------------------------------------------
        D-|---------------------------------------------------------------------------
        A-|-16-//-/--4---/----/--/--8---/----/----/------12--/--/--/--------16--------


        D-|--------0------------0-3-2-0-------------0--------------------------7-9^7--
        A-|---0-0-3-5--0-----0-3-------1---1-3-1-0-5-5-3-----------5-8-5-5-8->9-------
        D-|----3-----5~-3-0-3-----------3-3-------------5-3-0-3-5-7-----7-------------
        G-|--2---------------------------3--------------------------------------------
        D-|-0-------------------------------------------------------------------------
        A-|-/-/-/---4--/--/-----/------8-/-/-------/----12------/------/------/---16--
        Xang
        D-|-7-7-8-7---7-0-7-10-12------10-12-0-12-0-12-9------0-12-9-9-12-------------
        A-|---------8------------10~-12-----------------12-10~-----------9-12-10~-----
        D-|----------------------------------------------------------------------12---
        G-|---------------------------------------------------------------------------
        D-|---------------------------------------------------------------------------
        A-|-/-----/---/---------4-----/----/----/--------8----/----/-----/-------12---

        D-|-0-12-0-12-9---------9--12-------------------------------------------------
        A-|------------12-9---9--12--9-10~--------------------------------------------
        D-|----------------12---------------------------------------------------------
        G-|---------------------------------------------------------------------------
        D-|---------------------------------------------------------------------------
        A-|---/--------/--------/------16---------------------------------------------
        Cống
        D-|----------------------3-0-3-0-3---0-------------------------------0-2-3----
        A-|-10~-10~-10~-9n-0-3n-3-------------3-1-0------0--------------0-1-------1---
        D-|-----------------------3-----3----------0-3-5~-7-7-5~-0-0-3-5~-------------
        G-|---------------------------------------------------------------------------
        D-|-------------------------------------------------------0-------------------
        A-|-/--------/-----/----4-/----/-/--------8--/---/--/---12-/---/-----/---16---
        Xề
        D-|-0---------------3-2-0-3-2-0-3-2-0-0----0-3-2-0-----0----------------------
        A-|--1n~--0-000-0--------------------3--0-3-------1-0-3---0--0--0-----0-----0-
        D-|--------------3-3------------------------------------5~-3~-2----0h2-3h2----
        G-|--------2---2-------------------------------------------------5~----------2
        D-|---------------------------------------------------------------------------
        A-|-/--/---/--4-/--/--/-------8------/------/-----/-----12--/-----/---/-----16
        Xang
        D-|--------------------3-0-7-7->12-12-12-12^-12->15-15-15-14-12-----0-12------
        A-|-------------0-3-0-3---5------------------------------------14-12----9-12--
        D-|------0-3-0-3--------------------------------------------------------------
        G-|5-2-5----------------------------------------------------------------------
        D-|---------------------------------------------------------------------------
        A-|------/------/------/---4--------/----/-----------/---8----/----/----/-----

        D-|------0-12-0-12-9-----------9--12------------------------------------------
        A-|-10~-------------12-9-----9--12--9-10~-------------------------------------
        D-|---12-----------------12---------------------------------------------------
        G-|---------------------------------------------------------------------------
        D-|---------------------------------------------------------------------------
        A-|---12---/--------/----------/------16--------------------------------------
        Xang

        D-|----------------------3-0-3-0-3-0-----------------------------------0------
        A-|-10~-10~-10~-9n-0-3n-3-----------3-1-0-----------5-8-7-5-----------0-1-0-1-
        D-|-----------------------3-----3--------5-3-0-3-5-7-------8-7-5~0-0-3--------
        G-|---------------------------------------------------------------------------
        D-|---------------------------------------------------------------0-----------
        A-|---/------/-----/----4-/----/-/------8----/------/------/----12-/----/-----

        D-|---------------------------------------------------------------------------
        A-|---------------------------------------------------------------------------
        D-|-0-3-0-5~------------------------------------------------------------------
        G-|---------------------------------------------------------------------------
        D-|---------------------------------------------------------------------------
        A-|-/----16-------------------------------------------------------------------


        D-|------------0-3-0-3---0-----0-12-10-12-15-10-12-12-9---------0-------------
        A-|-----0----0------------3-1-0---------------------------12-9-0---------5----
        D-|-5~-----0--3-----3----------------------------12--------------5~-3-0h3-----
        G-|------2--------------------------------------------------------------------
        D-|---------0-----------------------------------------------------------------
        A-|-/-/--/--4-/----/-/--------8--------/-------/---/------12---/-/----/--16---

        D-|---------0----------------------------------0-3-2-0-----------0------------
        A-|-5-5-5--0-3~-1-0---------0---0-----------0-3-------1-0-------0-3-----------
        D-|------0----------5~---0h2-3p2--3n-0-3-0-3-------------5~3-0-3---5~-3-0h3-0-
        G-|------------------------------2--------------------------------------------
        D-|---------------------------------------------------------------------------
        A-|-/---/-/-4---/---/-------/----8---/------/------/----12---/--/--/--------16

        D-|----0------7-7->10-12-0-12-0-12-9------12-9-9-12---------------0-5-4-0-0---
        A-|-0-3-5--0-8----------------------12~10~----------9-12-10~-10~---------5----
        D-|------5~-7---------------------------------------------------12------------
        G-|---------------------------------------------------------------------------
        D-|---------------------------------------------------------------------------
        A-|-/--/-/--4-/--------/---/--------8---/----/------/--------12---/-----/-----

        D-|-4-5-7-9^7-----------------------------------------------------------------
        A-|---------------------------------------------------------------------------
        D-|---------------------------------------------------------------------------
        G-|---------------------------------------------------------------------------
        D-|---------------------------------------------------------------------------
        A-|---/----16-----------------------------------------------------------------

        D-|---7-7-8-7-7-0-7-10-12------10-12-0-12-0-12-9------0-12-9-9-12----------0--
        A-|----------8-----------10~-12-----------------12-10~-----------9-12-10~-----
        D-|----------------------------------------------------------------------12---
        G-|---------------------------------------------------------------------------
        D-|---------------------------------------------------------------------------
        A-|---/-----/-/--------/-----/-----/----/--------/----/----/-----/--------/---
        .....................................Xang
        D-|---9-12--------------|------------12-14-15-14-12-14-12---------12-15-12-0-12-0
        A-|--------9-10~12-12-12|121212-12-12--------------------15~-12-15---------------
        D-|-12------------------|--------------------------------------------------------
        G-|---------------------|--------------------------------------------------------
        D-|---------------------|--------------------------------------------------------
        A-|-/------/---/-------/|-----/----/--------/-----------4-----/----------/----/--

        D-|-12-9--------12-9-----------0-12-9-12-9------0-----------------------------
        A-|-----12-10~-9----12-12-10~-------------12-9---10~-....---------------------
        D-|--------------------------12-----------------------------------------------
        G-|---------------------------------------------------------------------------
        D-|---------------------------------------------------------------------------
        A-|------8-----/---/----/----12---/------/---/---16---------------------------
        <bài viết được chỉnh sửa lúc 12.09.2008 12:03:10 bởi GuitarVongCo >
         
        #19
          GuitarVongCo

          • Số bài : 96
          • Điểm thưởng : 0
          • Từ: 06.01.2006
          • Trạng thái: offline
          Guitar Vọng cổ câu 5, 6 - Dây Đào 18.03.2006 02:33:09 (permalink)
          Guitar Vọng cổ câu 5, 6 - Dây Đào (Câu này gom từ các câu khác lại không cần mp3 quí vị có thể đàn dể dàng. Đây là 1 trong những cách ráp nối.)

          Tips để Copy & Paste vào trong Word or Wordpad: Dùng font: Courier New, size 10.


          D-|---------------7h9-797-----0-0-3-0--------------------0--------------------
          A-|-5----0-5-8-10~-------8---0-------1-3-1-0-5-3--------0-3-------------------
          D-|-----0------------------7---3----------------5~-3-0-3---5~-3-0h3-0---------
          G-|---------------------------------------------------------------------------
          D-|---------------------------------------------------------------------------
          A-|16//-/--4----/---/---/--8---/----/----/-----12----/--/--/-------16---------

          D-|-2-3-2-0-3---3-0-------3-0-3-0-0---------------------0-5-4-0-0-4h5-7-9^-7--
          A-|--------3-0-3---5-3-------------3~-1-0------0---------5-----5--------------
          D-|-------------------5~-3-------0-------0-3-5~-7-7-5~-0----------------------
          G-|---------------------------------------------------------------------------
          D-|---------------------------------------------------------------------------
          A-|-/------/----/-----4---/-----/-/-----8--/---/--/---12-/----/-----/------16-

          D-|-7-7-8-7-7-0-7-10-12------10-12---0-12-0-12-9--------12-9-9-12-------------
          A-|--------8-----------10~-12-------------------12-10~-9---------9-12-12-10~--
          D-|-------------------------------------------------------------------------12
          G-|---------------------------------------------------------------------------
          D-|---------------------------------------------------------------------------
          A-|-/-----/-/---------4----/-----/------/--------8-----/---/-----/-------12---

          D-|-0-9-12--------------------------------------------------------------------
          A-|-------9-10~-12-14-12------------------------------------------------------
          D-|---------------------------------------------------------------------------
          G-|---------------------------------------------------------------------------
          D-|---------------------------------------------------------------------------
          A-|-/-----/---/-------16------------------------------------------------------
          Xề
          D-|-------------12-14-15-14-12-14-12--------12-15-12-0-12-0-12-9---------10-12--
          A-|-121212-12-12--------------------15~12-15--------------------12-10~-12-----10~
          D-|-----------------------------------------------------------------------------
          G-|-----------------------------------------------------------------------------
          D-|-----------------------------------------------------------------------------
          A-|------/----/--------/-----------4----/---------/-----/--------8------/---/---

          D-|-12-9-7-------------7------------------------------------------------------
          A-|-------8-7h8n-8-7-5~-------------------------------------------------------
          D-|---------------------7-----------------------------------------------------
          G-|---------------------------------------------------------------------------
          D-|---------------------------------------------------------------------------
          A-|--/--12--/----/---/-16-----------------------------------------------------
          Xề
          D-|--0-0-3-0--------0---------2-3-2-0-3---3-0---------------------------------
          A-|-0-------1-0----0-3---------------3-0-3---5-3--0--0-0----------------------
          D-|---3---------0-3---5~-3-0--------------------5~-3~-2---0-2-0-2-3-----------
          G-|------------2----------------------------------------5~---------2----------
          D-|---------------------------------------------------------------------------
          A-|-/-/----/--4-/--/--/----8--/------/----/----12--/----/---/-----16----------


          D-|-------------------------------------3-5-3-20-3-2-0-0---0-3-2-0---------0--
          A-|------------------------------3-5-3-5--------------3-0-3-------1-3-1-0-5-5-
          D-|-3-2-0-3-2-0-3-2-0-----3-5-3-5---------------------------------------------
          G-|------------------5757-----------------------------------------------------
          D-|---------------------------------------------------------------------------
          A-|---/-------/------/----4------/------/------/------8----/------/-------/---


          D-|-------------------------7-9^-7--------------------------------------------
          A-|-3-----------5-8-5-5-8->9--------------------------------------------------
          D-|--5-3-0-3-5-7-----7--------------------------------------------------------
          G-|---------------------------------------------------------------------------
          D-|---------------------------------------------------------------------------
          A-|-12-------/------/------/----16--------------------------------------------

          Xang
          D-|-7-787-7-0-7-10-12---15^12-14-15^14-15-14-12--12-14-15----12-15-12---------
          A-|------8-----------10~-----------------------15-------12-15--------14^12-10~
          D-|---------------------------------------------------------------------------
          G-|---------------------------------------------------------------------------
          D-|---------------------------------------------------------------------------
          A-|-/---/-/--------4-----/-----/-----/----------8--------/----------/----/----

          D-|----0-12-9-12-9----0-------------------------------------------------------
          A-|-9-------------12-9-10~----------------------------------------------------
          D-|--12-----------------------------------------------------------------------
          G-|---------------------------------------------------------------------------
          D-|---------------------------------------------------------------------------
          A-|--12---/------/---/--16----------------------------------------------------
          Cống
          D-|------------------3-0-3-0---0----------------------------------------0-2-3-
          A-|-10~10~10~9n0-3n-3-----------3~1-0-----------5-8-7-5--------------0-1-----1
          D-|-------------------3-----1b0------5-3-0-3-5-7-------8-7-5~-0-0-3-5~--------
          G-|---------------------------------------------------------------------------
          D-|----------------------------------------------------------0----------------
          A-|--/-----/---/----4-/----/---/----8----/------/------/-----12-/---/---/---16

          D-|-0---------3-0-3-0---0-------------------0-7-4-7-0-4h5-7-9^7---------------
          A-|--1n~0-000------------3~1-0-----0---------5--------------------------------
          D-|----------3-------1b0------0-3-5~7-7-5~-0----------------------------------
          G-|------2--------------------------------------------------------------------
          D-|---------------------------------------------------------------------------
          A-|-/--/-/--4-/-----/---/----8--/--/--/---12-/--/-------/----16---------------
          Xề
          D-|-777-7-7---7-0-7-10-12------10-12--12-9-12------0-0-3-0--------------------
          A-|---------8------------10~-12--------------12-8-7-3~----3~-1-0--------------
          D-|---------------------------------12--------------------------0-5n~3-5n-5-3-
          G-|--------------------------------------------------------------------------2
          D-|---------------------------------------------------------------------------
          A-|---/---/---/---------4----/-----/---/------8---/-/----/--12--/----/----/--16

          D-|----------------------------353-20--0-23-----------------0-7-4-7-0-4h5-7-9^7
          A-|---------------------3-5-3-5------3~-----1---1n0----------5-----------------
          D-|----------3-5-3-5-3-5---------------------3-3---5-3-0-3-0-------------------
          G-|-2-2-5-2-5---------------------------------3--------------------------------
          D-|----------------------------------------------------------------------------
          A-|-/-----/------/------4------/----/-/-----8-/-/--/------12-/--/-------/----16

          D-|-777-7-7-7-0-7-10-12---12-9-12--0-12----------------3-0-3-0---0--3---------
          A-|--------8-----------10~-------12-----9-12-10~-0-3n-3-------1-0-5----------5
          D-|-----------------------------------------------------3------------5~-3-0h3-
          G-|---------------------------------------------------------------------------
          D-|---------------------------------------------------------------------------
          A-|---/---/-/---------4----/------/-----/--------8----/-/----/-12-/--/----/--16
          <bài viết được chỉnh sửa lúc 13.10.2007 02:56:55 bởi GuitarVongCo >
           
          #20
            GuitarVongCo

            • Số bài : 96
            • Điểm thưởng : 0
            • Từ: 06.01.2006
            • Trạng thái: offline
            Guitar Vọng cổ câu 1, 2 - Dây Kép Cao (La) 18.03.2006 02:43:03 (permalink)
            Guitar Vọng cổ câu 1, 2 - Dây Kép Cao (La) (Câu này gom từ các câu khác lại không cần mp3 quí vị có thể đàn dể dàng. Đây là 1 trong những cách ráp nối.)

            Tips để Copy & Paste vào trong Word or Wordpad: Dùng font: Courier New, size 10.



            D-|--------7-7-7----3-2-2-----------5-7-9-10-9-7------------------------------
            A-|-----------7-5~-0---0-3-3-0-3-5-7------------10-9-7-10-9-7-0---------------
            D-|-7---7-7---------------2------------------------------------3--2-0---------
            G-|-------------------------------------------------------------------3-2-----
            D-|---------------------------------------------------------------------------

            A-|16-///-4--/--/-----/---8--/------/--------/-------12-------/-------/-------
            D-|---------------------------------------------------------------------------
            A-|-0-3-5-7-5~----------------------------------------------------------------
            D-|-----------7---------------------------------------------------------------
            G-|---------------------------------------------------------------------------
            D-|---------------------------------------------------------------------------
            A-|-----/----16---------------------------------------------------------------

            D-|-----7-14-10-97-------79-10-97-----------7447-------------------------7----
            A-|-7-10-7--------10~7-10--------9-8-7-07-07----4-7-5~-----30-3-0-0-4-5-7-9->7
            D-|--------------------------------------------------7-0h2-------7------------
            G-|---------------------------------------------------------------------------
            D-|---------------------------------------------------------------------------
            A-|-/---/-/-----4--/-----/------/----8--/----/--/---12----/-----/-----/-----16
            Xang
            D-|------------10-7-10-97--7910----7-10--10-9-7-10-9-7-----------4-4-7--------
            A-|7-5~-7-9-7-7----------10----7-10-------------------9^7-5~4-0-4-----0-4---5~
            D-|------------------------------------10--------------------7-7----------7---
            G-|----------9----------------------------------------------------------------
            D-|---------------------------------------------------------------------------
            A-|/--/-----/-/---/-----/------/--------8---/--------/--/---12-/-/----/-----16
            Cống
            D-|--------------------------------------------------4-7---------4-7-----7----
            A-|-5~5~5~-3-2-3-2-0----------------3n-0-----3n-0-4-7---4-7-5~-0----4-5~7-9---
            D-|------------------3-2-0-3-2-0---5----3-2-2-----------------7-7-------------
            G-|------------------------------5--------------------------------------------
            D-|---------------------------------------------------------------------------
            A-|-/---/----/-------4-------/-----/--/-----8---/---/---/----12-/---/--/--16--
            Xề
            D-|---7---------10-7-10-9-7--7-9-10----7-10-10-7-9-10-9-7--7-----7^--3^232-2--
            A-|10~--10~9~7-7-----------10------7-10---------------------9-8-7-0-3-----0-3-
            D-|----------------------------------------10------------10------------------2
            G-|---------------------------------------------------------------------------
            D-|---------------------------------------------------------------------------
            A-|--/-/---/---4---/--------/------/--------8--/--------/--/---12-/--/---/---16
            Xang
            D-|---------------------2-----------------------------4-7----------4-4-7------
            A-|------------------023-3-2-0-3-2-0---------0-3-0-4-7---4-7-5~-0-4-----0-4---5~
            D-|-2-22222-5-2-5-2-5---------------3-2-0-2-3-2----------------7-7----------7-
            G-|---------------------------------------------------------------------------
            D-|---------------------------------------------------------------------------
            A-|-/---/-----/------4---/-------/------/-----8--/---/---/----12-/-/----/-----16
            Xang
            D-|-------------5h7-5-5-7h9-10-7-10-9-7--7-9-10----7-10-7-----------4---------
            A-|-5~-5~-5~-4-7-----7-----------------10------7-10------9^7-5~4-0-4-8n-7-0-5~
            D-|-------------------------------------------------------------7-------------
            G-|---------------------------------------------------------------------------
            D-|---------------------------------------------------------------------------
            A-|-/-----/----/----4-/---/----/-------8-------/--------/-/--12--/--/--/----16

            D-|---------------------------------7-7-4-7-------------------------------------
            A-|-5~5~5~0---3-0-----3-3-0-3-3n-0-7-------7-0----7-----------------------------
            D-|--------0h2-------5-5-5---2-------7--------7-10-------7----------------------
            G-|---------------5-5------------------------------9-7~-5-----------------------
            D-|---------------------------------------------------------------------------
            A-|-/---/--/----4---/-/-/----8---/--/-/---12--/---/--/---16---------------------

            D-|-------------------------------2-2-3-2-2--------7-7-4-7-7--------------7---
            A-|--------------------------0-2-3-------0-3-3--0-7-------7-5~-0-3-0-3-5-7----
            D-|-7-7-9-10-9-7-10-9-7-5~-5~---------------2-------7-------------2---------7-
            G-|---------------------------------------------------------------------------
            D-|---------------------------------------------------------------------------
            A-|-/------/--------/------4---/--/-----/---8---/--/-/---12-/-----/----/---16-

            D-|--10-9-7-----10--10-7-9-10-9-7-------------7-4-4-7----------7--------------
            A-|-7------10~-7-----------------9-8-7-0-7-0-7-------4-7-5~-0-7-4-5~7-9^7-----
            D-|---------------10---------------------------------------7-7----------------
            G-|---------------------------------------------------------------------------
            D-|---------------------------------------------------------------------------
            A-|/-/----/----4---/---/--------/----8---/------/----/----12-/--/--/----16----

            D-|-7--------10--10-7-9-10-9-7-------------7-4-4-7---------4-7----------------
            A-|--9n-9-7-7-----------------9-8-7-0-7-0-7-------4-7-5~-0----4-5~-7-9^7------
            D-|------------10---------------------------------------7-7-------------------
            G-|--------9------------------------------------------------------------------
            D-|---------------------------------------------------------------------------
            A-|-/--/--/-4---/---/--------/----8---/------/----/----12-/---/---/---16------
            Xang
            D-|---------7-9-10-9-7-9-7--------7-10-7--7---------7-4----------447---------
            A-|-777-7-7---------------10~-7-10---------9-8-7-0-7---7-7-5~-0-4---0-4---5~..
            D-|-------------------------------------10-------------------7-7--------7-----
            G-|---------------------------------------------------------------------------
            D-|---------------------------------------------------------------------------
            A-|---/---/-----/--------4----/--------/--/----8---/--/--/--12-/-/--/-----16--
            <bài viết được chỉnh sửa lúc 12.09.2008 12:07:27 bởi GuitarVongCo >
             
            #21
              GuitarVongCo

              • Số bài : 96
              • Điểm thưởng : 0
              • Từ: 06.01.2006
              • Trạng thái: offline
              Guitar Vọng cổ câu 4, 6 - Dây Kép Cao (La) 23.03.2006 05:28:38 (permalink)
              Guitar Vọng cổ câu 4, 6 - Dây Kép Cao (La) (Câu này gom từ các câu khác lại không cần mp3 quí vị có thể đàn dể dàng. Đây là 1 trong những cách ráp nối.)

              Tips để Copy & Paste vào trong Word or Wordpad: Dùng font: Courier New, size 10.


              D-|--------7-7-7---3-2-2--------7-7-4-7-7-------------------------------------
              A-|-----------7-5~0---0-3--3-0-7-------7-5~0-3--0-3-5-7-5~--------------------
              D-|-7---7-7---------------2------7-------------2----------7-------------------
              G-|---------------------------------------------------------------------------
              D-|---------------------------------------------------------------------------
              A-|16-///-4--/--/----/----8--/--/-/---12-/-----/----/----16-------------------

              D-|-----7-9-10-9-7-7--------7-10-7--7---------744-7---------4-7---------------
              A-|-7-10------------10~-7-10---------9-8-7-0-7-----4-7-5~-0----4-5~-7-9^7-----
              D-|-------------------------------10---------------------7-7------------------
              G-|---------------------------------------------------------------------------
              D-|---------------------------------------------------------------------------
              A-|/----/-----/----/----/--------/--/----8---/-/---/----12-/---/--/-----16----

              D-|-7--------10--10-7-9-10-9-7---------7-4-4-7---------4-7--------------------
              A-|--9n-9-7-7-----------------9-8-7-0-7-------4-7-5~-0----4-5~-7-9^7----------
              D-|------------10-----------------------------------7-7-----------------------
              G-|--------9------------------------------------------------------------------
              D-|---------------------------------------------------------------------------
              A-|-/--/--/-4---/---/--------/----8---/--/----/----12-/---/--/-----16---------

              D-|--------7-9-10-9-7-9-7--------7-10-7---------------7-4-7-7-----------------
              A-|-777-7-7--------------10~-7-10------9-7-0-3---3-0-7-----7-5~0-3-0-3-5-7-5~-
              D-|-------------------------------------------2-2-----------------2----------7
              G-|---------------------------------------------------------------------------
              D-|---------------------------------------------------------------------------
              A-|---/---/----/--------4----/-------/-----/--8-/--/--/---12-/----/----/----16
              Xề
              D-|----10-9-7-7--------------------7-9-10--10-9-10-9-7-7-9-10----7-10--10-----
              A-|-5h7--------10~-7-10--7-10-7-10--------------------10-----7-10-------------
              D-|--------------------------------------10--------------------------10-------
              G-|---------------------------------------------------------------------------
              D-|---------------------------------------------------------------------------
              A-|-----/---/---/--------4---------/------/---/--------8-----/--------/-------

              D-|-9-7----------------------------2------------------------------------------
              A-|----10-9-7-10-9-7-0---------0h2--3p2-0-------------------------------------
              D-|-------------------10-9-7-5~------------2----------------------------------
              G-|---------------------------------------------------------------------------
              D-|---------------------------------------------------------------------------
              A-|-/------12--------/-------/-----/------16----------------------------------


              D-|---------------------------5~7-9-10--1097-----------------------------7----
              A-|--3n-2h3p2-0-------------3---------------9^7-5~--0----3-0-3-0--0-3-5-7-9->7
              D-|-5----------3-3-2h3h2-0-5----------10-------------0h2---------7------------
              G-|5----------------------5---------------------------------------------------
              D-|---------------------------------------------------------------------------
              A-|/-/------/----4-----/---/--/---8------/-/--/----12---/------/------/------16
              Xang
              D-|-------------7-9-11-7-----7-9-11-7---11-9-7----------7-4-4-7---------------
              A-|-7-5~-7-9-7-7---------10~------------------9n-7-5~-0--------0-4---5~-------
              D-|----------------------------------11--------------7-7-----------7----------
              G-|-----------9---------------------------------------------------------------
              D-|---------------------------------------------------------------------------
              A-|-/---/----/-4--/----/----/-------8----/---/--/---12-/--/----/----16--------
              Cống
              D-|------------------------------------------------------------7-4------------
              A-|-5~5~5~-3-2-3-2-0---------------------------------3n-0-3-5-7---5~-3-0-3-0--
              D-|-----------------3-2-0-3-2-0---------------------2-------------------------
              G-|----------------------------4-5-4-2-0-2-4-020-0h2--------------------------
              D-|---------------------------------------------2-----------------------------
              A-|--/--/----/------4-------/------/-------/----8--/--/-----/--12---/------/--

              D-|---------7-----------------------------------------------------------------
              A-|--0-3-5-7-9----------------------------------------------------------------
              D-|-7-------------------------------------------------------------------------
              G-|---------------------------------------------------------------------------
              D-|---------------------------------------------------------------------------
              A-|------/---16---------------------------------------------------------------

              D-|-7---------7-9-10^7--10^9-7--------7-10-7-----------4-7--------------------
              A-|--9n---7-7-----------------10~-7-10------9^7-5~-4-0----4-5~-7-9-7----------
              D-|-------------------10----------------------------7-7-----------------------
              G-|--------9------------------------------------------------------------------
              D-|---------------------------------------------------------------------------
              A-|-/--/----/4-/-----/---/---8----/--------/--/----12-/---/---/---16----------
              Xề
              D-|-------7-9-10-9-7-9-7--7-9-10-7--7-------------4-7--7^4^2---------2------
              A-|777-7-7--------------10~----------9n8-7-0-7-0-7----------32320-0h2-3p2-0-
              D-|-------------------------------10------------------7----------5~--------2
              G-|---------------------------------------------------------------------------
              D-|---------------------------------------------------------------------------
              A-|--/---/-----/-------4-/-------/--/----8---/------/--/--12-/---/---/----16

              D-|---------10--10-7-9-10-9-7-10-9-7--7-9-10----7-10-7-----------4-7----------
              A-|-0--3-0-7------------------------10------7-10------9^7-5~-4-0----4-5~-7-9^7
              D-|---5---7---10----------------------------------------------7-7-------------
              G-|--5------------------------------------------------------------------------
              D-|---------------------------------------------------------------------------
              A-|-/-/--/-4---/---/--------/--------8------/--------/--/----12-/---/---/---16

              D-|--------7-9-10-9-7-9-7--------7-10-7---------------7-7-4-7------------------
              A-|-777-7-7--------------10~-7-10------9-7-0-3-3n-0--7-------7-5~-0-3----------
              D-|-------------------------------------------2--------7-------------2->5-5ng-7
              G-|----------------------------------------------------------------------------
              D-|----------------------------------------------------------------------------
              A-|---/---/-----/-------4----/--------/----/--8---/---/-/---12----/--/-----/-16
              <bài viết được chỉnh sửa lúc 12.09.2008 12:13:18 bởi GuitarVongCo >
               
              #22
                GuitarVongCo

                • Số bài : 96
                • Điểm thưởng : 0
                • Từ: 06.01.2006
                • Trạng thái: offline
                Guitar Vọng cổ câu 5, 6 - Dây Kép Cao (La) 24.03.2006 07:04:22 (permalink)
                Da^y Kep' cao (La) ca^u 5 & 6 (Câu này gom từ các câu khác lại không cần mp3 quí vị có thể đàn dể dàng. Đây là 1 trong những cách ráp nối.)

                Tips để Copy & Paste vào trong Word or Wordpad: Dùng font: Courier New, size 10.


                D-|--------7-7-7---3-2-2--------7-7-4-7-7-------------------------------------
                A-|-----------7-5~0---0-3--3-0-7-------7-5~0-3--0-3-5-7-5~--------------------
                D-|-7---7-7---------------2------7-------------2----------7-------------------
                G-|---------------------------------------------------------------------------
                D-|---------------------------------------------------------------------------
                A-|16-///-4--/--/----/----8--/--/-/---12-/-----/----/----16-------------------

                D-|-----7-9-10-9-7-7--------7-10-7--7---------744-7---------4-7---------------
                A-|-7-10------------10~-7-10---------9-8-7-0-7-----4-7-5~-0----4-5~-7-9^7-----
                D-|-------------------------------10---------------------7-7------------------
                G-|---------------------------------------------------------------------------
                D-|---------------------------------------------------------------------------
                A-|/----/-----/----/----/--------/--/----8---/-/---/----12-/---/--/-----16----

                D-|-7--------10--10-7-9-10-9-7---------7-4-4-7---------4-7--------------------
                A-|--9n-9-7-7-----------------9-8-7-0-7-------4-7-5~-0----4-5~-7-9^7----------
                D-|------------10-----------------------------------7-7-----------------------
                G-|--------9------------------------------------------------------------------
                D-|---------------------------------------------------------------------------
                A-|-/--/--/-4---/---/--------/----8---/--/----/----12-/---/--/-----16---------
                Xề
                D-|-------7-9-10-9-7-9-7-------7-10-7--7-----------5-7-7^4^2-----------2------
                A-|777-7-7--------------10~7-10---------9-8-7-07-07---5~----3-2-320-0h2-3p2-0-
                D-|----------------------------------10----------------------------5~--------2
                G-|---------------------------------------------------------------------------
                D-|---------------------------------------------------------------------------
                A-|--/---/-----/-------4---/--------/--/----8--/-----/--/-12--/----/---/----16
                Xề
                D-|------------------------2--------------------------5~-7-9-7-9-10--10-7-10-9
                A-|-------------------0-2-3-3-2-3-2-0-0-------------3-------------------------
                D-|2-22222---5-2-5-2-5---------------3-3-2-0-3-2-0-5---------------10---------
                G-|-----------------------------------------------5---------------------------
                D-|---------------------------------------------------------------------------
                A-|/---/-------/------4-----/-----/----/-------8---/--/----/-------12---/-----

                D-|-7-----3-2-2---------------------------------------------------------------
                A-|--9-7-0---0-3--------------------------------------------------------------
                D-|-------------2-------------------------------------------------------------
                G-|---------------------------------------------------------------------------
                D-|---------------------------------------------------------------------------
                A-|--/------/---16------------------------------------------------------------

                D-|---------------------------------------4-7-----------4-7-4-7---------------
                A-|-1-1-1-11-1-0--3---3-0-3-0-0-3-3n-0-4-7---4-7-5~-5~-0-------0-4-5-7-9^7----
                D-|-------------5~--5--------5---2--------------------7-----------------------
                G-|----------------5----------------------------------------------------------
                D-|---------------------------------------------------------------------------
                A-|--/--/---/---4--/--/-----/----8---/---/---/-----12--/----/------/----16----
                Xang
                D-|-7---------------10-7-10-9-7----------7-4-4-7----------4-4-7---------------
                A-|--9~-7---777----7----------987-0-7-0-7-------4-7-5~-0-4-----0-4---5~-------
                D-|------------10-7-----------------------------------7-7----------7----------
                G-|------9--------------------------------------------------------------------
                D-|---------------------------------------------------------------------------
                A-|-/-/--/----4---/--/------/---8---/------/----/----12-/-/----/----16--------
                Cống
                D-|-----------------------------------------4-7---------4-7-----7-------------
                A-|-5~-5~-5~-0---3-0-----3-0-3-0-0-3-3-0-4-7---4-7-5~-0----4-5~7-9------------
                D-|-----------0h2----5~5~-------5---2----------------7-7----------------------
                G-|-----------------5---------------------------------------------------------
                D-|---------------------------------------------------------------------------
                A-|-/-----/-----/--4-/---/-----/----8--/---/---/----12-/---/--/-16------------

                D-|-7---------7-9-10-7--7-------------7-4-4-7---------4-7---------------------
                A-|--9~7--777------------9-8-7-0-7-0-7-------4-7-5~-0----4-5~-7-9^7-----------
                D-|-------------------10---------------------------7-7------------------------
                G-|-----9---------------------------------------------------------------------
                D-|---------------------------------------------------------------------------
                A-|-/-/-/---4---/----/--/----8---/------/----/----12-/---/--/----16-----------

                D-|--------7-9-10-9-7-9-7---------7-10-7--7--------------5-7---7^4^2^---------
                A-|-777-7-7--------------10~-7-10----------9-8-7-0-7-0-7----5~-------3-2-3-2-0
                D-|-------------------------------------10------------------------------------
                G-|---------------------------------------------------------------------------
                D-|---------------------------------------------------------------------------
                A-|---/---/-----/-------4----/---------/--/----8---/-------/---/--12---/------
                Xề
                D-|----2----------------------------------------------------------------------
                A-|-0h2-3p2-0-----------------------------------------------------------------
                D-|5~--------2----------------------------------------------------------------
                G-|---------------------------------------------------------------------------
                D-|---------------------------------------------------------------------------
                A-|/---/----16----------------------------------------------------------------

                D-|---------10--10-7-9-10-9-7-------------7-4-4-7---------4-7-----------------
                A-|-0--3-0-7-----------------9-8-7-0-7-0-7-------4-7-5~-0----4-5~-7-9^7-------
                D-|---5---7---10---------------------------------------7-7--------------------
                G-|--5------------------------------------------------------------------------
                D-|---------------------------------------------------------------------------
                A-|-/-/--/-4--/----/-------/-----8---/-----/----/-----12-/---/--/----16-------

                D-|--------7-9-10-9-7-9-7--------7-10-7---------------7-7-4-7------------------
                A-|-777-7-7--------------10~-7-10------9-7-0-3-3n-0--7-------7-5~-0-3----------
                D-|-------------------------------------------2--------7-------------2->5-5ng-7
                G-|----------------------------------------------------------------------------
                D-|----------------------------------------------------------------------------
                A-|---/---/-----/-------4----/--------/----/--8---/---/-/---12----/--/-----/-16
                <bài viết được chỉnh sửa lúc 12.09.2008 12:15:31 bởi GuitarVongCo >
                 
                #23
                  GuitarVongCo

                  • Số bài : 96
                  • Điểm thưởng : 0
                  • Từ: 06.01.2006
                  • Trạng thái: offline
                  Guitar Vọng cổ câu 4, 6 - Dây Đào 28.03.2006 01:19:57 (permalink)
                  Guitar Vọng cổ câu 4, 6 - Dây Đào (Câu này gom từ các câu khác lại không cần mp3 quí vị có thể đàn dể dàng. Đây là 1 trong những cách ráp nối.)

                  Tips để Copy & Paste vào trong Word or Wordpad: Dùng font: Courier New, size 10.

                  D-|---------0--------------------0-320--------------0-------------------------
                  A-|-5---5-0---3~-1-0----0-------0-----5-3--------0-3--3-----------------------
                  D-|------0----------5~-0-3-3-0-3---------5~-3-0-3------5~3-0h3-0--------------
                  G-|-----------------------2---------------------------------------------------
                  D-|---------------------------------------------------------------------------
                  A-|16-//-/--4----/--/---/-8--/--/---/---12----/--/-----/------16--------------

                  D-|-2-3-2-0-3---3-0-------3-0-3-0---0------0-12-10-12-15-10-12-9--12----------
                  A-|--------3-0-3---5-3---------------3~-1-0---------------------12--9-12-10~10
                  D-|-------------------5~-3-------1b0------------------------------------------12
                  G-|---------------------------------------------------------------------------
                  D-|---------------------------------------------------------------------------
                  A-|-/------/----/-----4---/-----/---/-----8-----/------------/------/-------12

                  D-|-0-5-4-0-0-4h5-7-9^-7------------------------------------------------------
                  A-|--------5------------------------------------------------------------------
                  D-|---------------------------------------------------------------------------
                  G-|---------------------------------------------------------------------------
                  D-|---------------------------------------------------------------------------
                  A-|-/-----/-----/-----16------------------------------------------------------

                  D-|-7-7-8-7-7-0-7-10-12------10-12-0-12-0-12-9--------12-9-9-12---------------
                  A-|--------8-----------10~-12-----------------12-10~-9---------9-12-10~-------
                  D-|----------------------------------------------------------------------12---
                  G-|---------------------------------------------------------------------------
                  D-|---------------------------------------------------------------------------
                  A-|-/-----/-/---------4-----/----/---/---------8-----/---/-----/---------12---

                  D-|-0--9-12-------------------------------------------------------------------
                  A-|--------9-10~-12-14-12-----------------------------------------------------
                  D-|--12-----------------------------------------------------------------------
                  G-|---------------------------------------------------------------------------
                  D-|---------------------------------------------------------------------------
                  A-|---/----/---/-------16-----------------------------------------------------

                  D-|-------------12-14-15-14-12-14-12---------12-15-12---------------3-0-3-0---0-3-
                  A-|-121212-12-12--------------------15~-12-15--------14^12-10~-0-0h3-------1-0-5--
                  D-|------------------------------------------------------------------3------------
                  G-|-------------------------------------------------------------------------------
                  D-|-------------------------------------------------------------------------------
                  A-|------/----/--------/-----------4-----/----------/----/-----8---/-/----/-12-/--

                  D-|---------------------------------------------------------------------------
                  A-|----------5----------------------------------------------------------------
                  D-|-5~-3-0h3------------------------------------------------------------------
                  G-|---------------------------------------------------------------------------
                  D-|---------------------------------------------------------------------------
                  A-|-/----/--16----------------------------------------------------------------
                  Xe^`
                  D-|5-5-3-2-3-2-0------7-----7-----0-320---------------------------------------
                  A-|-------------3~-5h7-8~7-5~-0-3~-----1-0--0--0-0----------------------------
                  D-|-5------------------------7-3----------5~-3~-2---0-2-0-2-3-----------------
                  G-|-----------------------------------------------5~---------2----------------
                  D-|---------------------------------------------------------------------------
                  A-|/-/---/------4----/-/---/-8/-/----/---12--/----/---/------16---------------


                  D-|-------------------------------------3-5-3-20-3-2-0-0---0-3-2-0---------0--
                  A-|------------------------------3-5-3-5--------------3-0-3-------1-3-1-0-5-5-
                  D-|-3-2-0-3-2-0-3-2-0-----3-5-3-5---------------------------------------------
                  G-|------------------5757-----------------------------------------------------
                  D-|---------------------------------------------------------------------------
                  A-|---/-------/------/----4------/------/------/------8----/------/-------/---

                  D-|-------------------------7-9^-7--------------------------------------------
                  A-|-3-----------5-8-5-5-8->9--------------------------------------------------
                  D-|--5-3-0-3-5-7-----7--------------------------------------------------------
                  G-|---------------------------------------------------------------------------
                  D-|---------------------------------------------------------------------------
                  A-|-12-------/------/------/----16--------------------------------------------
                  Xang
                  D-|-7-787-7-0-7-10-12---15^12-14-15^14-15-14-12--12-14-15----12-15-12---------
                  A-|------8-----------10~-----------------------15-------12-15--------14^12-10~
                  D-|---------------------------------------------------------------------------
                  G-|---------------------------------------------------------------------------
                  D-|---------------------------------------------------------------------------
                  A-|-/---/-/---------4----/-----/-----/----------8--------/----------/----/----

                  D-|----0-12-9-12-9----0-------------------------------------------------------
                  A-|-9-------------12-9-10~----------------------------------------------------
                  D-|--12-----------------------------------------------------------------------
                  G-|---------------------------------------------------------------------------
                  D-|---------------------------------------------------------------------------
                  A-|--12--/-------/---/-16-----------------------------------------------------
                  Cống

                  D-|------------------3-0-3-0---0----------------------------------------0-2-3-
                  A-|-10~10~10~9n0-3n-3-----------3~1-0-----------5-8-7-5--------------0-1-----1
                  D-|-------------------3-----1b0------5-3-0-3-5-7-------8-7-5~-0-0-3-5~--------
                  G-|---------------------------------------------------------------------------
                  D-|----------------------------------------------------------0----------------
                  A-|---/----/---/----4-/----/---/----8----/------/------/-----12-/---/---/---16

                  D-|-0---------3-0-3-0---0-------------------0-7-4-7-0-4h5-7-9^7---------------
                  A-|--1n~0-000------------3~1-0-----0---------5--------------------------------
                  D-|----------3-------1b0------0-3-5~7-7-5~-0----------------------------------
                  G-|------2--------------------------------------------------------------------
                  D-|---------------------------------------------------------------------------
                  A-|-/--/-/--4-/-----/---/----8--/--/--/---12-/--/-------/----16---------------
                  Xề
                  D-|-777-7-7---7-0-7-10-12------10-12--12-9-12------0-0-3-0--------------------
                  A-|---------8------------10~-12--------------12-8-7-3~----3~-1-0--------------
                  D-|---------------------------------12--------------------------0-5n~3-5n-5-3-
                  G-|--------------------------------------------------------------------------2
                  D-|---------------------------------------------------------------------------
                  A-|---/---/---/--------4------/----/---/------8---/-/----/--12--/----/----/--16
                  Xe^
                  D-|----------------------3-0-7-10-12--15^14-12-0--0--12-9-9-12----------------
                  A-|---------------0-3-0-3---5-------10~---------12-12---------9-12-10~--------
                  D-|--------0-3-0-3----------------------------------------------------12------
                  G-|-2-5-2-5-------------------------------------------------------------------
                  D-|---------------------------------------------------------------------------
                  A-|-/------/------/------4---/----/----/-----8---/------/-----/-------12------

                  D-|-0--9-12-----7-9^-7--------------------------------------------------------
                  A-|--------9-10~--------------------------------------------------------------
                  D-|--12-----------------------------------------------------------------------
                  G-|---------------------------------------------------------------------------
                  D-|---------------------------------------------------------------------------
                  A-|--/-----/---/-----16-------------------------------------------------------

                  D-|-777-7-7-7-0-7-10-12---12-9-12--0-12---------------3-0-3-0---0--3----------
                  A-|--------8-----------10~-------12----9-12-10~-0-0h3~-------1-0-5----------5-
                  D-|----------------------------------------------------3------------5~-3-0h3--
                  G-|---------------------------------------------------------------------------
                  D-|---------------------------------------------------------------------------
                  A-|---/---/-/---------4----/-----/-----7--------8---/--/----/-12-/--/----/--16
                  <bài viết được chỉnh sửa lúc 13.10.2007 03:00:27 bởi GuitarVongCo >
                   
                  #24
                    GuitarVongCo

                    • Số bài : 96
                    • Điểm thưởng : 0
                    • Từ: 06.01.2006
                    • Trạng thái: offline
                    Guitar Vọng Cổ câu 1 2 3 - Dây Kép 13.04.2006 23:58:21 (permalink)
                    Guitar Vọng Cổ câu 1 2 3 - Dây Kép



                    Tips để Copy & Paste vào trong Word or Wordpad: Dùng font: Courier New, size 10.

                    Hò (Câu 1 - Hò, Xê, Xang, Cống)
                    D-|----------0-5-2-5-2-0----------------------------0-5-----------------------
                    A-|---------2-----------2-5-3~--------------------5----3~---------------------
                    D-|-5----0-5------------------0----0---0-3-5-0-5-8-------0-3-5-3----5---------
                    G-|-----0-----------------------0-3-3---------------------------5~-3----------
                    D-|----------------------------------0----------------------------------------
                    A-|16//-/--4-/---/------/-----8----/--/----/------12--/--/------/---16--------

                    D-|----5-8-5-5-0---8-5-7-8-7-5-5------0-5-2-5-2-0-----------5------0----------
                    A-|-5-8-------------------------7n-6-5-5---------2-5-3~----5-2--2---7-5-------
                    D-|-------------8-8-----------8------------------------5-5-----5--------------
                    G-|-----------------------------------------------------0---------------------
                    D-|---------------------------------------------------------------------------
                    A-|-/------/---/--4--/-------/-/-----8-/--/------/----12--/--/--/----12-------
                    Xang
                    D-|-5------------8-5-8-7-5-----0-5-2-5-2-0---------0-5-2-5-2-0----------------
                    A-|--7n-7-5-5---5---------8-7-5-5---------2-5-3~----------------3~------------
                    D-|--------0-8-5--------------------------------5-5-----------5---------------
                    G-|----------------------------------------------0----------------------------
                    D-|---------------------------------------------------------------------------
                    A-|-/--/--/-4--/-/-----/------8-/--/------/----12-/--/-----/----16------------
                    Cống
                    D-|-----------0---0-8-8-7-5----0-5-2-5-2-0---------2-5------5-----------------
                    A-|-3~-3~-3~-2-3~--5-------7-5--5---------2-5-3~------2-3~-5-7----------------
                    D-|---------0----5-----------------------------5-5----------------------------
                    G-|---------------------------------------------0-----------------------------
                    D-|---------------------------------------------------------------------------
                    A-|---/---/--/---4-/--/---/--8--/--/------/---12-/----/---/--16---------------
                    Câu 2 - Xề, Xang, Xang, Hò, Hò, Xê, Xê, Xang
                    Xề & Xang nối liền
                    D-|-5------------------------------7^-7^-10~-10~10~---------------------------
                    A-|--7~-5-555-5-/-/-/-/--8~8~-8~10~-------------------------------------------
                    D-|------0---0----------------------------------------------------------------
                    G-|---------------------------------------------------------------------------
                    D-|---------------------------------------------------------------------------
                    A-|-/--/-/--4-/-/-/-8-/-/-/-12-/---/------/-----16----------------------------

                    D-|-10->17-17-17-17-17----17-14-17-14-17-12-14-9-12-10-9-0-7-0-3-5-7-5-0-5------
                    A-|-------------------------------------------------------------------7-5-2-5-3~
                    D-|------------------17-17-----------------------------------------------------5
                    G-|-----------------------------------------------------------------------------
                    D-|-----------------------------------------------------------------------------
                    A-|------1-----/----/----4----/-----/----------/---------8-------/----/---/----12

                    D-|----------------0-2-0------------------------------------------------------
                    A-|-------------0-2------3~---------------------------------------------------
                    D-|--------0-3-5--------5-----------------------------------------------------
                    G-|-0-3-5-7-------------------------------------------------------------------
                    D-|---------------------------------------------------------------------------
                    A-|-----/------/-----/---16---------------------------------------------------
                    Xang
                    D-|-----------0-9-5-7-9-7-5------0-5-2-5-2-0---------0-5-2-5-2-0--------------
                    A-|-3~-3~-3~---5-----------7-7->5-----------2-5-3~----------------3~----------
                    D-|-----------------------------------------------5-5-----------5-------------
                    G-|------------------------------------------------0--------------------------
                    D-|---------------------------------------------------------------------------
                    A-|/--/---/-4--/--/-------/--8---/---/------/----12-/--/-----/----16----------

                    D-|---------0---0-5-8-5----------------------------0-5------------------------
                    A-|-3~3~3~-2-3~--5-----7-5---------------------5------3~----------------------
                    D-|-------0----5----------8-7-5-8-0-0-5-3~0-5-8---------0-3-5-3---5-----------
                    G-|---------------------------------------------7--------------5~3------------
                    D-|---------------------------------------------------------------------------
                    A-|--/--/--/---4-/----/---/-------8-----/---/--/-/---/--/------/--16----------

                    D-|------------------------------------------------------------/-/--/--16-----
                    A-|-5^1n~0--------------------------------------------------------------------
                    D-|-------5~3-2-0-5n-5-3--------0-0-------------------------------------------
                    G-|---------------------5~-3-0-3-0-3--2h3p2-0-0-0-0-3-2-0-0--0-0--------0-----
                    D-|---------------------------------0--------3-3---------3--0---3-------------
                    A-|/--/---/---4---/-----/-------/---8----/-----/------/----12----3~-3~-1------

                    D-|--5->7-9-9-7-9-7-5-5-----0-5-2-5-2-0---------2-5-----5---------------------
                    A-|--------7---7-------7n6-5-5---------2-5-3~------2-3~5-7-5-5----------------
                    D-|------------------9-----------------------5-5------------------------------
                    G-|-------------------------------------------0-------------------------------
                    D-|---------------------------------------------------------------------------
                    A-|-/--/---/--4-/---/-/----8-/--/------/----12-/---/---/-----16---------------

                    D-|-5------------8-5-8-7-5-----0-5-2-5-2-0---------2-5------------------------
                    A-|--7~-5-555---5---------8-7-5-5---------2-5-3~------2-3~-5-7-5--------------
                    D-|------0---8-5--------------------------------5-5---------------------------
                    G-|----------------------------------------------0----------------------------
                    D-|---------------------------------------------------------------------------
                    A-|-/--/-/--4--/-/-----/------8-/--/------/----12-/---/--/-----16-------------
                    Xang
                    D-|-9-7----7-9-5------5-8-5-5-----0-5-2-5-2-0---------0-5-2-5-2-0-------------
                    A-|----9-10-----8~-5-8-------7n6-5-----------2-5-3~---------------3~----------
                    D-|--9---------------------8-----------------------5-5-----------2------------
                    G-|-------------------------------------------------0-------------------------
                    D-|---------------------------------------------------------------------------
                    A-|--/-/---/---4---/------/-/----8-/--/------/----12-/--/-----/---16----------
                    Xề (bắt đầu câu 3 - Xề, Xang, Xang, Xê, Xang, Cống, Xê, Hò)
                    D-|-------------------0-----------------0-------------------------------------
                    A-|-3n3~3~-3n3~-3~-1-3-1-0----------0--0-1~-0---------------------------------
                    D-|-----------------------5-3~-0-3-5~7-------5-3~0----------------------------
                    G-|---------------------------------------------------------------------------
                    D-|---------------------------------------------------------------------------
                    A-|/-/--/--4-/--/--/--8--/--/----/--12-/-/---/---16---------------------------
                    Xang
                    D-|-----------------------------------------5-7-8-8-5-7-8-7-5---------2-5-2-0--0----
                    A-|--------0-3-1-0-------------------5-8-5-8-----------------7^5-3~2----------2-2-3~
                    D-|--3~-0-3-------3-0-3-0-5-8-5-8-5-8------------8------------------5--------5---0--
                    G-|3-----------------------------------------------------------------0--------------
                    D-|---------------------------------------------------------------------------------
                    A-|-/---/------/------4-------/------/------/----8--/-------/--/---12-/---/----/--16
                    Xang
                    D-|--------0----0-3~-0-8-5-7-8-7-5------------2-0-2-5-0-----------------------
                    A-|-3n3~3~---1-3-1----5-----------7^5-3~-2---2----------3~--------------------
                    D-|---------------------------------------5-5----------5----------------------
                    G-|----------------------------------------0----------------------------------
                    D-|---------------------------------------------------------------------------
                    A-|/-/--/-4--/--/-/---8--/-------/--/----12-/-/-----/---16--------------------

                    D-|-----------------8-5-8-7-5-----0-5-2-5-2-0---------0-5---------------------
                    A-|-3~3~3~2-3n3~---5---------8-7-5-5---------2-5-3~------2-2-5-7-5------------
                    D-|-------------5-5-------------------------------5-5-----5-------------------
                    G-|--------------0---------------------------------0--------------------------
                    D-|---------------------------------------------------------------------------
                    A-|--/--/---/---4-/-/-----/------8-/--/------/---12--/---/-/----16------------
                    Xang
                    D-|-5------5-7-9^5-5-----0-5-2-5-2-0---------0-5-2-5-2-0----------------------
                    A-|--7~-5-5---------7~7-5-----------2-5-3~---------------3~-------------------
                    D-|------0--------9-----------------------5-5-----------5---------------------
                    G-|----------------------------------------0----------------------------------
                    D-|---------------------------------------------------------------------------
                    A-|-/-/--/4--/---/-/--8--/---/------/----12-/--/-----/---16-------------------
                    Cống
                    D-|-----------3-5-3~3~5-7-8-7-5--------5-2-5-2-----------2-5-----5------------
                    A-|-3~-3~3~2-5-----5-----------7-6-5-5--------5-2-5-3~------2-3~5-7-----------
                    D-|---------------------------------0-----------------5-5---------------------
                    G-|----------------------------------------------------0----------------------
                    D-|---------------------------------------------------------------------------
                    A-|---/--/---/----4-/---/---/------8-/---/------/----12-/---/--/--16----------

                    D-|-5------------8-5-8-7-5-----0-5-2-5-2-0---------2-5------------------------
                    A-|--7~-5-555---5---------8-7-5-5---------2-5-3~------2-3~-5-7-5--------------
                    D-|------0---8-5--------------------------------5-5---------------------------
                    G-|----------------------------------------------0----------------------------
                    D-|---------------------------------------------------------------------------
                    A-|-/-/--/--4--/-/-----/------8-/--/------/----12-/---/---/----16-------------

                    D-|--------5-7-9^5------5-8-5---------------------------0-5-------------------
                    A-|-555-5-5-------8~-5-8-----7-5-----------------------5---3~-----------------
                    D-|-----------------------------8-7-5-8-0-000-5-3~0-5-8------0-5-5------------
                    G-|-------------------------------------------------------------3-------------
                    D-|---------------------------------------------------------------------------
                    A-|---/---/--/---4---/------/---/-------8---/---/---/--12-/--/--/16-----------
                    <bài viết được chỉnh sửa lúc 04.10.2007 03:20:23 bởi GuitarVongCo >
                     
                    #25
                      GuitarVongCo

                      • Số bài : 96
                      • Điểm thưởng : 0
                      • Từ: 06.01.2006
                      • Trạng thái: offline
                      Guitar Vọng Cổ câu 4 5 6 - Dây Kép 14.04.2006 00:16:43 (permalink)
                      Guitar Vọng Cổ câu 4 5 6 - Dây Kép



                      Tips để Copy & Paste vào trong Word or Wordpad: Dùng font: Courier New, size 10.


                      Hò (bắt đầu câu 4 - Hò, Xê, Xê, Hò)
                      D-|----------0-5-2---------------------------0-5------------------------------
                      A-|--------3~-----5-5-3~--------------------5---3~----------------------------
                      D-|-5---0-5------------0---0----0-3-5-0-5-8-------0-3-5-3----5----------------
                      G-|----0----------------0-3-3----------------------------5~-3-----------------
                      D-|--------------------------0------------------------------------------------
                      A-|16///--4--/---/--/--8---/--/-----/------12--/--/------/---16---------------

                      D-|------------------0-0------------------------0-5-2-5-20----------5----0----
                      A-|------------0-1-0----1~-0---------------------5--------2-5-3~---5-2-2---7-5
                      D-|5---0-0-3-5--------------1-3-1-0-5-3------------------------5-5----5-------
                      G-|-0h3-3------------------------------5--3-0-3-----------------0-------------
                      D-|--------------------------------------------0------------------------------
                      A-|/---/-----/-------4---/------/------/-------8-/--/-----/---12--/--/-/----16

                      D-|-5------------8-5-8-7-5-----0-5-2-5-2-0---------2-5------------------------
                      A-|--7n-7-5-5---5---------8-7-5-5---------2-5-3~------2-3~-5-7-5--------------
                      D-|--------0-8-5--------------------------------5-5---------------------------
                      G-|----------------------------------------------0----------------------------
                      D-|---------------------------------------------------------------------------
                      A-|-/--/--/-4--/-/-----/------8-/--/------/----12-/---/---/---16--------------

                      D-|--------5-7-8-7-5-7-5-----5-8-5-------------------------------0-5------------
                      A-|-555-5-5-------------8~5-8-----7-5---------------------------5---3~----------
                      D-|----------------------------------8-7-5-8-0---0---0-3-5-0-5-8-----0-3-5-3---5
                      G-|-------------------------------------------0-3-3-------------------------5~3-
                      D-|------------------------------------------------0----------------------------
                      A-|---/---/----/-------4--/------/---/-------8---/--/----/------/--/-/------/--16
                      Xề (bắt đầu câu 5 - Xề, Hò, Hò, Hò, Hò, Xê, Xê, Xề)
                      D-|----------------------------------------------------------------------------
                      A-|----------------0-----------------------------------------------------------
                      D-|-5-5-555-0-5-808-7-8-7-8-7-8-7^5-3~-5^-3-2-3-2--0-3-0-3-5--0-0-0-----0---0--
                      G-|---------------------------------------------------------5~-3-2---2h3-3p2---
                      D-|----------------------------------------------------------------5~--------0-
                      A-|/-/-/--4-----/---/-------/-------8----/------/----/-----12--/---/----/----16

                      D-|-----------------------------3535-7-5-7-8-8-7-5--------------------------------
                      A-|-------------------------3535------------------8-7-5-8-7-5---------------------
                      D-|-----0---------------3535----------------8----------------8-7-5-7-0-3-5-3-----5
                      G-|-3->7-7----------3535----------------------------------------------------5~3-0-
                      D-|-------7~-5353535--------------------------------------------------------------
                      A-|-/----/--/---4---/---/---/---8----/------/--/-----12------/-------/------/----16

                      D-|----------------5-2-----------0-8-7-5-5-8------5-8-------------------------
                      A-|-------------5-----5-5-3~-5-8~-5-----8---5--------3~-----------------------
                      D-|-5-5-5-5-5-5-------------0----------------8-5h8----5-----------------------
                      G-|---------------------------------------------------------------------------
                      D-|---------------------------------------------------------------------------
                      A-|/-/-/----4---/----/--/---8--/--/----/---12--/--/--/16----------------------

                      D-|-------------0-5-2-5-2-0----------------------------0----------------------
                      A-|--------------5---------2-5-3~---------------------5--3~-------------------
                      D-|--5--5--5--5------------------0-0-0-0-5-3-0-5-0-5-8--5-0-3-5-3-------------
                      G-|----------0---------------------------------------------------5~-3-0-------
                      D-|---------------------------------------------------------------------------
                      A-|/--/----/--4--/--/------/-----8-----/---/---/-----12-/-/------/----16------

                      D-|------------------------------------------0--------------------------------
                      A-|----------------------------------------5---3~-----------------------------
                      D-|----------0--0---------000-5-3~0-5-0-5-8---5-0---5-3----5------------------
                      G-|0--0-3-2---5~-5~5~-3--------------------------------5~-3-------------------
                      D-|--3------------------0-----------------------------------------------------
                      A-|/-/--/--4--/--/-/----8---/---/---/------12-/-/------/---16-----------------

                      D-|-------8------0-8-5-7-8-7-5---0-5-2-5-2-0---------2-5----------------------
                      A-|-5h8-10-10-8---------------7-5-----------2-5-3~------2-3~-5-7-5------------
                      D-|------------10~8-------------------------------5-5-------------------------
                      G-|------------------------------------------------0--------------------------
                      D-|---------------------------------------------------------------------------
                      A-|/--/---/-----4-/--/-------/--8-/--/------/----12-/---/---/---16------------
                      Xe^
                      D-|-5--------------8-7-5---0-5-2-5-2-0---------2-5----------------------------
                      A-|--7n-7-5-555---5-----7-5-----------2-5-3~------2-3~-5-7-5------------------
                      D-|--------0---8-5--------------------------5-5-------------------------------
                      G-|------------------------------------------0--------------------------------
                      D-|---------------------------------------------------------------------------
                      A-|-/--/--/---4--/-/---/--8-/--/------/----12-/---/---/----16-----------------
                      Xề
                      D-|--------5-7-8-7-5-7-5-----5-8-5-5-----0-0-3-5--5-2-5-5----0----------------
                      A-|-555-5-5-------------8~5-8-------7n6-5-5-5---3~-----5--0-2-3~2-------------
                      D-|-------------------------------8----------------------5-------0------------
                      G-|---------------------------------------------------------------------------
                      D-|---------------------------------------------------------------------------
                      A-|---/---/----/-------4--/------/-/----8-/----/--/---12-/--/-/--16-----------
                      Xề (Bắt đầu câu 6 - Xề, Xê, Xang, Cống, Xê, Xề Xê, Hò)
                      D-|---------------------------------------------------------------------------
                      A-|---------------------------------------------------------------------------
                      D-|-0-00000-0-7-10-7-10-7------7->5-5-3~-0h2-0--------------0-----------------
                      G-|-------------------------------------------4-4-2h4-2--0h2-4~-2-------------
                      D-|----------------------------------------------------5---------5~2-0--------
                      A-|/-/--/---/4-----/------/-------/---8----/--/--/-12--/----/----/---16-------

                      D-|-----5-7-9-9-7-9-7-9-7-9-7-9-9^7^5------0-5-----------5--------------------
                      A-|----------7--------
                      -----7---7-----7n6-5----2-5-3~----5-2--2-5-7-5----------
                      D-|-------------------------------------------------5-5-----5-----------------
                      G-|---------------------------
                      -----------------------0------------------------
                      D-|---------------------------------------------------------------------------
                      A-|-//---/---4--/------
                      -/-----/---8--/---/----/----12--/--/--/----16----------

                      Xang
                      D-|-5--------5-7-9-5-7-9-7-5---0-5-2-5-2-0---------0-5-2-5-2-0----------------
                      A-|--7~-5-555---------------7-5-5---------2-5-3~----------------3~------------
                      D-|------0--------------------------------------5-5-----------5---------------
                      G-|----------------------------------------------0----------------------------
                      D-|---------------------------------------------------------------------------
                      A-|-/-/--/--4--/---/-------/--8-/--/------/----12-/--/-----/----16------------
                      Cống
                      D-|-----------0-9-5-7-9-7-5-----0-5-2-5-2-0---------2-5------5----------------
                      A-|-3~3~3~2-3~-5-----------7-7-5-----------2-5-3~------2-3~-5-7---------------
                      D-|--------0-5-----------------------------------5-5--------------------------
                      G-|-----------------------------------------------0---------------------------
                      D-|---------------------------------------------------------------------------
                      A-|--/--/--/-4-/--/-------/--8--/---/------/----12-/---/---/--16--------------

                      D-|-5------5-7-9-5-5------0-5-2-5-2-----------2-5-----------------------------
                      A-|--7~-5-5---------7-7->5---------5-2-5-3~------2-3~-5-7-5-------------------
                      D-|------0--------9------------------------5-5--------------------------------
                      G-|-----------------------------------------0---------------------------------
                      D-|---------------------------------------------------------------------------
                      A-|-/--/-/4--/---/-/--8---/---/------/----12-/---/---/---16-------------------
                      Xề
                      D-|--------5-7-9-5------5-8-5-5-----0-0-3-5--5-2-5-5----0---------------------
                      A-|-555-5-5-------8~-5-8-------7n6-5-5-5---3~-----5--0-2-3~2------------------
                      D-|--------------------------8----------------------5-------0-----------------
                      G-|---------------------------------------------------------------------------
                      D-|---------------------------------------------------------------------------
                      A-|---/---/--/---4---/-----/--/----8-/----/--/---12-/--/-/--16----------------


                      D-|---------0-------------------------0-5-2-5-2-0---------2-5-----------------
                      A-|-----0-0---1-0----------------------5---------2-5-3~------2-3~-5-7-5-------
                      D-|-3-5~-7-------5~-3-2-3-2-0--------------------------5-5--------------------
                      G-|--------------------------5--3-0-3-------------------0---------------------
                      D-|----------------------------------0----------------------------------------
                      A-|--/--/-/---4--/----/------/-------8-/--/------/----12-/---/---/---16-------

                      D-|--------9-7-5--------5-8-5---------------------------0-5-------------------
                      A-|---5-5-5-------8~-5-8-----7-5---------------------5-----3~-----------------
                      D-|--0--------------------------8-7-5-8-0-0-5-3~0-5-8--5----0-3-5-3----5------
                      G-|---------------------------------------------------7------------5~-3-------
                      D-|---------------------------------------------------------------------------
                      A-|--/--/--/---4-----/------/---/-------8-----/---/--/12--/-/------/---16-----
                      <bài viết được chỉnh sửa lúc 04.10.2007 03:25:24 bởi GuitarVongCo >
                       
                      #26
                        meconhac

                        • Số bài : 2
                        • Điểm thưởng : 0
                        • Từ: 26.04.2006
                        • Trạng thái: offline
                        RE: Guitar Vọng Cổ Câu 4, 6 - Dây Kép Cao sang Đào 26.04.2006 21:39:52 (permalink)


                        D-|--------77-7---3-2-2-----------5-7-9-10-9-7--------------------------------
                        A-|----------7-5~0---0-3-3n0-3-5-7------------10-9-7-10-9-7-0-----------------
                        D-|-7---7-7-------------2------------------------------------10-9-7-----------
                        G-|----------------------------------------------------------------10-9-------
                        D-|---------------------------------------------------------------------------
                        A-|16-///-4-/--/----/---8--/------/--------/------12--------/-------/---------



                        Xin chào ban:
                        Mình vùa mới tặp khúc nầy nhưng cảm thấy hơi lạ quá. Tiếng đàn không giống như trong mp3, nhất là khúc D3 D2, và A0. Xin bạn chỉ giùm. Cám ơn bạn nhiều nhé. Mấy khuôn đàn bạn bỏ lên đây thật là hay quá.
                         
                        #27
                          GuitarVongCo

                          • Số bài : 96
                          • Điểm thưởng : 0
                          • Từ: 06.01.2006
                          • Trạng thái: offline
                          RE: Guitar Vọng Cổ Câu 4, 6 - Dây Kép Cao sang Đào 27.04.2006 01:38:19 (permalink)
                          Chào bạn meconhac,

                          Cám ơn lời khen của bạn.

                          Tôi đã duyệt lại tất cả các bài & mp3 đều ăn khớp với nhau.
                          Ngọai trừ dây đờn của bạn lên không đúng như trang đầu.

                          Bạn còn câu hỏi hoặc giúp ý kiến thì PM cho tôi.

                          Chúc bạn đờn cổ nhạc thật mùi.

                          Tái bút :

                          Xin các bạn ĐỪNG POST LÊN TRANG NÀY nhưng PM cho tôi. Tôi sẽ còn post nhiều bài lên nữa để bài post được liên tục. Mong các bạn thông cảm.

                          Xin cám ơn.
                          <bài viết được chỉnh sửa lúc 09.05.2006 02:19:56 bởi GuitarVongCo >
                           
                          #28
                            GuitarVongCo

                            • Số bài : 96
                            • Điểm thưởng : 0
                            • Từ: 06.01.2006
                            • Trạng thái: offline
                            Guitar - Một Số Bài Rao Dây Đào 06.06.2006 01:42:38 (permalink)
                            Thường thường cải lương phải có đàn dạo hoặc rao để nghe cho mùi.
                            Có mùi thì người ca sĩ mới dể vô & vô cho đúng tông. Đồng thời người đàn có cơ hội để biểu diển tài năng của mình luôn.

                            Dưới đây một số bài rao dây đào của Nghệ sĩ Chí Tâm. Nghệ sĩ Chí Tâm có sản xuất những cuốn video tự học cải lương. Quí vị có thể mua tại Chí Tâm production để tham khảo thêm.

                            Chú ý khi nhấn chử XANG hơi khó viết cho nên quí vị nghe & đàn lại sao cho mùi thì được rồi.

                            Rao 1

                            D---------------12-10-9--0---12---0-7-----------7---7-----3---------0--------------------
                            A-10~-9-12-10~-9-------12-0-9--10~---8n----8-10~-8-7-0-3-5-5-3-----0--0------------------
                            D--------------------------------------7-10-------------------5~3-0----3n-0-0------------
                            G--------------------------------------------------------------------2-------------------
                            D--------------------------------------------------------------------------0-------------
                            A----------------------------------------------------------------------------------------

                            Rao 2

                            D----3-2h3p2-0-----3-2-0----0-2-3-0----0-----0-----0------0------------------------------
                            A--0----------3~-0-------3~---------3~---1-0-----0---1-0---5----0---0---0---------0------
                            D---3------------------------------------------3-------------5~---3-------3-2h3p2--------
                            G---------------------------------------------------------------------2-------------5n-5-
                            D----------------------------------------------------------------------------------------
                            A----------------------------------------------------------------------------------------

                            D-------------------------------------------------------0-7---0-12------------0----------
                            A-------------------------------------------------0---5-----0------9-12-10~-9------------
                            D--0------------------3-0---0-----0-------0---3-5---7------------------------------------
                            G----2->5-5-5-5-----5-----5---3-2-------2---5--------------------------------------------
                            D---------------3-3-----------------0-3--------------------------------------------------
                            A----------------------------------------------------------------------------------------

                            Rao 3

                            D-------------------------------------------7->10-12------8--10-12----7-8-7--------------
                            A-10n-10n10n10n10-10~10n(13)-9-10n-10~-9-0-8--------10~-12--------8-10-----8-8n----------
                            D-----------------------------------------7------------------------------------7-10------
                            G----------------------------------------------------------------------------------------
                            D----------------------------------------------------------------------------------------
                            A----------------------------------------------------------------------------------------

                            D-------7-----7-----------------------3-2h3p2-0--0---0-----------------------------------
                            A-8-10~---8-7---0-3-5n--5-0-----0---0----------3~-1-0--0---0-----------0-----------------
                            D---------------------------5~----3-------------------3-0-3-3-3n-2h3p2---------0---------
                            G------------------------------------------------------------2------------5n-5---2->5-5--
                            D----------------------------------------------------------------------------------------
                            A----------------------------------------------------------------------------------------

                            D----------------------------------------------------------------------------------------
                            A----------------------------------------------------------------------------------------
                            D---------3-------3-0-3-2-0---0---0-3-2-0---0-------------3n0----------------------------
                            G-5-----5---5---5-----------5---5~--------5~--3-2-0h2-3-2-----7---7----------------------
                            D---3-3-------3-------------------------------------------------0------------------------
                            A----------------------------------------------------------------------------------------

                            Rao 4

                            D-------------------------------------------------------7---7---0-3-0-----3n--2-3-2-0--0-
                            A-------------------------------------------------7h8-10-8-7-0-3-----0--0------------3~--
                            D-10n10n10n10n10n10n10n10n10~10n(13)-9-10n10~-9-10--------------------5~-3n--------------
                            G----------------------------------------------------------------------------------------
                            D----------------------------------------------------------------------------------------
                            A----------------------------------------------------------------------------------------


                            D---7-----0-----7->10-12--------10-12-14-12-15-14-12--------15-14-12----12-14-15-12------
                            A-5-----0----------------10~-12----------------------15~-12----------15------------------
                            D-----7-----3----------------------------------------------------------------------------
                            G----------------------------------------------------------------------------------------
                            D----------------------------------------------------------------------------------------
                            A----------------------------------------------------------------------------------------

                            D-15-14-12---12--12---12-----------------------------------------------------------------
                            A----------15--15--15----13-13n--13-12h13n(17)-12-0-10~---10n-10n10n10n10~---------------
                            D----------------------------------------------------------------------------------------
                            G----------------------------------------------------------------------------------------
                            D----------------------------------------------------------------------------------------
                            A----------------------------------------------------------------------------------------

                            Rao 5

                            D--------------------------------------8p7-7--7----7------7---7--------------0---3-2-0---
                            A-10n-10n10n10n10-10~10n--9-10n-10~-9-0-----10~-8-7--8-10~-8-7--------------0---------3--
                            D--------------------------------------------------10----------10->12-12~10n--0-3--------
                            G----------------------------------------------------------------------------------------
                            D----------------------------------------------------------------------------------------
                            A----------------------------------------------------------------------------------------

                            D-0---0---------------------------0----------------------0--------0-7-0-12---------0-----
                            A--1-0----0--------1n-111-1n~1-1-0-5--0---0-0-------0-1-0-5--0---5---0----9-12-10~9-----5
                            D------0-3-3-3n-0-0-----------------5~-0-3---3-0-0-3-------5~-7-0-------------------12-0-
                            G-----------2-----------------3------------2---------------------------------------------
                            D----------------0------------------------------0----------------------------------------
                            A----------------------------------------------------------------------------------------

                            Rao 6

                            D--------------------------------------3-2-0----0---0-3-0---0-------0-------0---0--------
                            A-10~-10~10~10~10n(13)-9--10~-10n--9-0-------3~---3~---3~1-3-3p1-1-3-3-1-0-0-3-1-5--0----
                            D-xang...------cống---xự--xang-xê--------------------3--------------------3-------5~-0-3-
                            G----------------------------------------------------------------------------------------
                            D----------------------------------------------------------------------------------------
                            A----------------------------------------------------------------------------------------

                            D--------------0------7-7-8p7-5~-4-7^-5~-4-4-7-5~-4-4------------------------------------
                            A-0-0-------1-0-5--0-8-0------------------5---0----7-3-5n--5-3--0------------------------
                            D----3-0-0-3-----5~-7-----------------------------------------5~-0-3---------------------
                            G--2-----------------------------------------------------------------2-------------------
                            D----------------------------------------------------------------------------------------
                            A----------------------------------------------------------------------------------------

                            D----------------------------------------------------------------------------------------
                            A----------------------------------------------------------------------------------------
                            D--------------------3-2h3p2-0----0---------0---------0---3n----------------------0------
                            G-222222->555555---------------5~---3-2h3p2-------3-2---5-------------------5-3-2--------
                            D----------------3-3--------------------------0-3------------5~-3---3-0--3-5--------5~---
                            A-----------------------------------------------------------------0-----5----------------

                            D-------------------7---8p7-8p7-777-7h8p7-7h8p7-8n----7->10-12-------8-10-12^---0--------
                            A------------5->7-8---0-----------------------------8---------10~-12----------8---10-8---
                            D-------5~-7--------------------------------------7--------------------------------------
                            G-----7----------------------------------------------------------------------------------
                            D-7--------------------------------------------------------------------------------------
                            A----------------------------------------------------------------------------------------

                            D-----0---3-5~-7->12-15^-14-12-----12-14-15-12-------------------------------------------
                            A---0---5---------------------15~--------------------------------------------------------
                            D----------------------------------------------------------------------------------------
                            G----------------------------------------------------------------------------------------
                            D----------------------------------------------------------------------------------------
                            A----------------------------------------------------------------------------------------

                            Rao 7

                            D----------------------------------------3-2-0--------0-----0-3-2-0---0------------------
                            A-10n-10n10-10-10n-10n-10n--9-10n-10~9-0-------3~---0-----0---------3~--1-0----0---------
                            D-------------------------------------------------------3-------------------0-3--3---3-2-
                            G----------------------------------------------------------------------------------2-----
                            D----------------------------------------------------------------------------------------
                            A----------------------------------------------------------------------------------------

                            D------------------------------------------------7-888-10^-8-7-------7-8-10^-8-7---------
                            A-0----------0-----------------------------8-10~---------------8-10~-------------10~-----
                            D-----0--2h3----0-----3---------0-----7-10-----------------------------------------------
                            G---5---------2-----5---5----2------7----------------------------------------------------
                            D----------------3--------5~--3--0-------------------------------------------------------
                            A----------------------------------------------------------------------------------------

                            D-7---0---0-----------7-----7--------0---------------------------------------------------
                            A---8---0--------8-10---8-7------8-0---5---5---------------------------------------------
                            D-----------7-10--------------10---------0-----------------------------------------------
                            G----------------------------------------------------------------------------------------
                            D----------------------------------------------------------------------------------------
                            A----------------------------------------------------------------------------------------
                            <bài viết được chỉnh sửa lúc 24.09.2006 01:18:25 bởi GuitarVongCo >
                             
                            #29
                              GuitarVongCo

                              • Số bài : 96
                              • Điểm thưởng : 0
                              • Từ: 06.01.2006
                              • Trạng thái: offline
                              Những khuôn chuyển tiếp từ Kép (Sol) qua Đào hoặc ngược lại 29.06.2006 00:41:43 (permalink)

                              Những khuôn chuyển tiếp từ Kép (Sol) qua Đào hoặc ngược lại

                              Câu 1, 2 Chuyển từ dây Kép qua dây Đào

                              Câu 1: Đàn Dây kép - Hò, Xê, Xang,
                              Cống
                              D-|-------------------------------------------------------------------5-------
                              A-|------------------------------------- Đàn về cống ở những nốt này-5-7------
                              D-|---------------------------------------------------------------------------
                              G-|---------------------------------------------------------------------------
                              D-|---------------------------------------------------------------------------
                              A-|---------------------------------------------------------------------------

                              Câu 2: Cách thứ 1

                               
                              Audio ở Đây

                               
                              Xề (vẩn còn dây kép)
                              D-|-5----------8-5-8-5-5----0-0-3-5--5-2-5-5----0-----------------------------
                              A-|--7~-5-555-----------7-5--5-5---3~-----5--0-2-3~-2-------------------------
                              D-|------0------8-----8---------------------5--------0------------------------
                              G-|---------------------------------------------------------------------------
                              D-|---------------------------------------------------------------------------
                              A-|-/--/-/--4---/----/-/--8--/----/--/---12-/--/-/---16-----------------------


                              Xang chuyển qua dây Đào
                              D-|--------0------------0-3-2-0-----------------------------------------------
                              A-|-------0-5--0-----0-3-------1---1-3-1-0-5-3-------------1^-0---0-0-5-------
                              D-|----0-3---5~-3-0-3-----------3-3-----------5-3-0-3-2-0-3----0h3-3---5~-----
                              G-|---2--------------------------3-----------------------3--------------------
                              D-|0-3------------------------------------------------------------------------
                              A-|--/-/--/-4--/--/-----/------8-/-/-------/-----12------/---/----/----16-----

                               
                              Câu 2: Cách thứ 2
                               
                              Audio ở Đây
                               
                              Xề (vẩn còn dây kép)
                              D-|---5----------8-5-8-7-5--5-7--8----5--8-8--5-7--8-7-5--5-----5----0--------
                              A-|-8~---8~7-5-5-----------8------5--8---------------------7~6-5--0-2-3~-2----
                              D-|---------------------------------------8--------------8-------5----------0-
                              G-|---------------------------------------------------------------------------
                              D-|---------------------------------------------------------------------------
                              A-|-/-/----/---4---/-------/------/-------8---/--------/--/---12-/--/-/----16-


                              Xang chuyển qua dây Đào
                              D-|--------0------------0-3-2-0-----------------------------------------------
                              A-|-------0-5--0-----0-3-------1---1-3-1-0-5-3-------------1-3-1-0------------
                              D-|----0-3---5~-3-0-3-----------3-3-----------5-3-0-3-2-0-3-------0-5~--------
                              G-|---2--------------------------3-----------------------3---------3----------
                              D-|0-3------------------------------------------------------------------------
                              A-|--/-/--/-4--/--/-----/------8-/-/-------/-----12------/-/---/----16--------

                              -

                              Tiếp tục đàn dây đào khuôn: Xang, Hò, Hò, Xê, Xê, Xang. Dứt câu 2.

                              Câu 5, 6 chuyển từ dây kép sang dây đào

                               
                              Audio ở Đây

                              Câu 5: Đàn Dây kép - Hò, Xê,

                              D-|---------------------------------------------------------------------------
                              A-|-------------------------------------- Đàn Về xê ở những nôt này--5-7-5----
                              D-|---------------------------------------------------------------------------
                              G-|---------------------------------------------------------------------------
                              D-|---------------------------------------------------------------------------
                              A-|---------------------------------------------------------------------------
                              Xề
                              D-|--------5-7-8-7-5-7-5-----5-8-5-5-----0-0-3-5--5-2-5-5----0----------------
                              A-|-555-5-5-------------8~5-8-------7n6-5-5-5---3~-----5--0-2-3~2-------------
                              D-|-------------------------------8----------------------5-------0------------
                              G-|---------------------------------------------------------------------------
                              D-|---------------------------------------------------------------------------
                              A-|---/---/----/-------4--/------/-/----8-/----/--/---12-/--/-/--16-----------
                              Xề qua dây đào
                              D-|--------0------------0-3-2-0-------------0---------------------------------
                              A-|-------0-5--0-----0-3-------1---1-3-1-0-5-5-3--0--0-0----------------------
                              D-|----0-3---5~-3-0-3-----------3-3-------------5~-3~-2---0-2-0-2-3---~-------
                              G-|---2--------------------------3----------------------5~---------2----------
                              D-|0-3------------------------------------------------------------------------
                              A-|--/-/--/-4--/--/-----/------8-/-/-------/---12---/---/---/------16---------

                              Tiếp tục Đàn dây đào khuôn: Xê, Xang, Cống, Xê, Xề, Xê, Hò. Dứt câu 6.

                              Câu 1 2 Chuyển từ Đào qua Kép #1

                               
                              Audio ở Đây

                              Câu 1: Dây Đào - Hò, Xê, Xang,
                              Cống
                              D-|-----------------------------------------------------------------12--------
                              A-|------------------------------------- Về cống ở những nốt này--12--14------
                              D-|---------------------------------------------------------------------------
                              G-|---------------------------------------------------------------------------
                              D-|---------------------------------------------------------------------------
                              A-|---------------------------------------------------------------------------
                              Câu 2:
                              Xề (Vẩn còn Đào)
                              D-|--12-----------------------15-12-15-14-12--------0--0--10-12---------------
                              A-|----14n-12--12-12-12-----12--------------15-14-12-12-12-----10~------------
                              D-|--------------------15-12--------------------------------------------------
                              G-|----------14---------------------------------------------------------------
                              D-|---------------------------------------------------------------------------
                              A-|---/---/---/------4-----/---/--------/----------8--/-------/---------------

                              D-|-12-9-7---7------7---------------------------------------------------------
                              A-|-------8-7-8-7-5~----------------------------------------------------------
                              D-|------------------7--------------------------------------------------------
                              G-|---------------------------------------------------------------------------
                              D-|---------------------------------------------------------------------------
                              A-|--/--12-/--/---/--16-------------------------------------------------------
                              Xang (Chuyển qua Kép)
                              D-|----5--8--7-5------5-8-5-5-------0-5-2-5-2-5---------0-5-2-5-2-0-----------
                              A-|-----5-------8~-5-8-------7n-6-5--5---------2-5-3~---------------3~--------
                              D-|-5----------------------8-------------------------5-5-----------5----------
                              G-|--0------------------------------------------------0-----------------------
                              D-|---------------------------------------------------------------------------
                              A-|-/--/--/----4---/------/-/-----8--/--/------/----12-/--/-----/---16--------
                              Tiêp tục Đàn dây Kép khuôn: Xang, Hò, Hò, Xê, Xê, Xang. Dứt câu 2.

                              Câu 1 2 Đào qua Kép #2

                               
                              Audio ở Đây

                              Câu 1: Dây Đào - Hò, Xê, Xang,

                              Cống
                              D-|-----------------------------------------------------------------0-2-3-----
                              A-|------------------------------------- Về cống ở những nốt này-0-1-----1n---
                              D-|---------------------------------------------------------------------------
                              G-|---------------------------------------------------------------------------
                              D-|---------------------------------------------------------------------------
                              A-|---------------------------------------------------------------------------
                              Câu 2:
                              Xề (Vẩn còn Đào)
                              D-|-0---------------3-2-0-3-2-0-3-2-0-0----0-3-2-0-----0----------------------
                              A-|--1n~--0-000-0--------------------3--0-3-------1-0-3---0--0--0-----0-----0-
                              D-|--------------3-3------------------------------------5~-3n-2----0h3-3h2----
                              G-|--------2---2-------------------------------------------------5~----------2
                              D-|---------------------------------------------------------------------------
                              A-|-/--/---/--/-/--/--/-------8------/-----/------/----12--/-----/----/------/
                              Xang (Chuyển qua Kép)
                              D-|--------------------------8-5-7-8-7-5-----0-5-2-5-2-0---------0-5-2-5-2-0--
                              A-|-------------------------5-----------77->5-----------2-5-3~---------------3~
                              D-|----------------0-5-0-5-8----------------------------------5-5-----------5-
                              G-|-2-2-3-0-3-0-3-5--------------------------------------------0--------------
                              D-|---------------------------------------------------------------------------
                              A-|-/-----/-------/------4--/--/-------/-8---/---/------/----12-/--/-----/---16

                              Tiêp tục Đàn dây Kép khuôn: Xang, Hò, Hò, Xê, Xê, Xang. Dứt câu 2.

                              Câu 5 6 Đào qua Kép #1 (Ve xe^` o not cao)
                               
                              Audio ở Đây

                              Câu 5 : Đàn Dây Đào - Hò, Xê,


                              D-|----------------------------------Về Xê ở những nốt này--------------------
                              A-|----------------------------------------------------------12-14^-12--------
                              D-|---------------------------------------------------------------------------
                              G-|---------------------------------------------------------------------------
                              D-|---------------------------------------------------------------------------
                              A-|---------------------------------------------------------------------------
                              Xề

                              D-|--12-----------------------15-12-15-14-12--------0--0--10-12---------------
                              A-|----14n-12--12-12-12-----12--------------15-14-12-12-12-----10~------------
                              D-|--------------------15-12--------------------------------------------------
                              G-|----------14---------------------------------------------------------------
                              D-|---------------------------------------------------------------------------
                              A-|---/---/---/------4-----/---/--------/----------8--/-------/---------------

                              D-|-12-9-7---7------7---------------------------------------------------------
                              A-|-------8-7-8-7-5~----------------------------------------------------------
                              D-|------------------7--------------------------------------------------------
                              G-|---------------------------------------------------------------------------
                              D-|---------------------------------------------------------------------------
                              A-|--/--12-/--/---/--16-------------------------------------------------------
                              Câu 6:
                              Xề (Chuyển qua Kép)
                              D-|----5--8--7-5------5-8-5-5-------0-0-3-5--5^-2-0---0-----------------------
                              A-|-----5-------8~-5-8-------7n-6-5--5-5---3~------1-0-1-0--------------------
                              D-|-5----------------------8------------------------------5-3~-0--------------
                              G-|--0------------------------------------------------------------------------
                              D-|---------------------------------------------------------------------------
                              A-|-/--/--/----4---/------/-/-----8--/----/--/---12--/-/--/---16--------------
                              Tiêp tục đàn dây Kép khuôn: Xê, Xang, Cống, Xê, Xề, Xê, Hò. Dứt câu 6.

                               
                              Câu 5 6 Đào qua Kép #2 (vê1 xề ở nốt thấp)
                               
                              Audio ở Đây

                              Câu 5 : Đàn Dây Đào - Hò, Xê,


                              D-|----------------------------------------------------------7-9^-7-----------
                              A-|----------------------------------Về Xê ở những nốt này--------------------
                              D-|---------------------------------------------------------------------------
                              G-|---------------------------------------------------------------------------
                              D-|---------------------------------------------------------------------------
                              A-|---------------------------------------------------------------------------
                              Xề
                              D-|-777-7-7---7-0-7-10-12------10-12--12-9-12------0-0-3-0--------------------
                              A-|---------8------------10~-12--------------12-8-7-3~----3~-1-0--0-----------
                              D-|---------------------------------12--------------------------0---3-3n-3n-3-
                              G-|--------------------------------------------------------------------------2
                              D-|---------------------------------------------------------------------------
                              A-|---/---/---/--------4------/----/---/------8---/-/----/--12--/---/----/--16
                              Câu 6

                              D-|--------------------------8-5-7-8-7-5---0-0-3-5--5-2-5-5----0--------------
                              A-|-------------------------5-----------7-5-5-5---3~-----5--0-2-3~-2----------
                              D-|----------------0-5-0-5-8-------------------------------5--------0---------
                              G-|-2-323-0-3-0-3-5-----------------------------------------------------------
                              D-|---------------------------------------------------------------------------
                              A-|-/-----/-------/------4--/--/-------/--8-/----/--/---12-/--/-/---16--------


                              Câu 5 6 Đào qua Kép #3(về xề ở nốt thấp)
                               
                              Audio ở Đây

                              Câu 5 : Đàn Dây Đào - Hò, Xê,


                              D-|----------------------------------------------------------7-9^-7-----------
                              A-|----------------------------------Về Xê ở những nốt này--------------------
                              D-|---------------------------------------------------------------------------
                              G-|---------------------------------------------------------------------------
                              D-|---------------------------------------------------------------------------
                              A-|---------------------------------------------------------------------------
                              Xề
                              D-|-777-7-7---7-0-7-10-12------10-12--12-9-12------0-0-3-0--------------------
                              A-|---------8------------10~-12--------------12-8-7-3~----3~-1-0--0-----------
                              D-|---------------------------------12--------------------------0---3-3n-3n-3-
                              G-|--------------------------------------------------------------------------2
                              D-|---------------------------------------------------------------------------
                              A-|---/---/---/--------4------/----/---/------8---/-/----/--12--/---/----/--16
                              Câu 6

                              D-|--------------------------8---578--8-7-5-----5-----------------------------
                              A-|-------------------------5--8~---6------5-7-8-8-7-5------------------------
                              D-|----------------0-5-0-5-8--8------8----------------8-7-5-----------0-------
                              G-|-2-323-0-3-0-3-5----------------------------------------8-7-5~7-0h3-3------
                              D-|---------------------------------------------------------------------0-----
                              A-|-/-----/-------/------4--/-/-/---8-/---/----/----12----/----/---/----16----

                              Rôi qua khuôn Xê này

                              D-|--------------------------3~-5-7-8-8-7-8-7-5---0-5---------0-5----0-5------
                              A-|----------------------3535------------------7-5---2-5-3~------2-3~---7-5---
                              D-|------------------3535------------8---------------------5-5----------------
                              G-|-3-20320-320-03535---------------------------------------0-----------------
                              D-|------------3--------------------------------------------------------------
                              A-|---/---/----/---4---/---/---/-----8--/------/-----/----12-/---/--/---16----

                              Tiêp tục Đàn dây Kép khuôn: Xang, Cống, Xê, Xề, Xê, Hò. Dứt câu 6.

                              <bài viết được chỉnh sửa lúc 14.09.2007 00:47:30 bởi GuitarVongCo >
                               
                              #30
                                Online Bookmarks Sharing: Share/Bookmark
                                Thay đổi trang: < 123456789 > | Trang 2 của 9 trang, bài viết từ 16 đến 30 trên tổng số 123 bài trong đề mục

                                Chuyển nhanh đến:

                                Thống kê hiện tại

                                Hiện đang có 0 thành viên và 2 bạn đọc.

                                Chú Giải và Quyền Lợi

                                • Bài Mới Đăng
                                • Không Có Bài Mới
                                • Bài Nổi Bật (có bài mới)
                                • Bài Nổi Bật (không bài mới)
                                • Khóa (có bài mới)
                                • Khóa (không có bài mới)
                                • Xem bài
                                • Đăng bài mới
                                • Trả lời bài
                                • Đăng bình chọn
                                • Bình Chọn
                                • Đánh giá các bài
                                • Có thể tự xóa bài
                                • Có thể tự xóa chủ đề
                                • Đánh giá bài viết

                                2000-2022 ASPPlayground.NET Forum Version 3.9