Tự Học Đàn Cải Lương Guitar - Vài Điễm Căn Bản & Và một Số Bài Bản Đàn (Có mp3)

Thay đổi trang: < 123456789 > | Trang 3 của 9 trang, bài viết từ 31 đến 45 trên tổng số 123 bài trong đề mục
Tác giả Bài
GuitarVongCo

  • Số bài : 96
  • Điểm thưởng : 0
  • Từ: 06.01.2006
  • Trạng thái: offline
Trăng Thu Dạ Khúc 29.06.2006 00:51:01 (permalink)

Trăng Thu Dạ Khúc - Dây Đào


Khúc dạo
D-|-----7-5~------------0-----------------------------------------------------
A-|-0-0-----7-0-7-5-0h3~-3------------5-10~n-10~-8-5--------------------------
D-|-----------------------5~-3-0-3-5-7-7--------------------------------------
G-|---------------------------------------------------------------------------
D-|---------------------------------------------------------------------------
A-|-----/---/---/---/---/-/----/------//-/----/----/--------------------------
Bắt đầu vô
D-|-0-3-0------5~---5~5h7-5~-7-9-7---------0-----3----------------------------
A-|------3-1-0--------------0-----10-7-10-7-0h3-5-5-3------------5-10~n-10~8-5
D-|-----------0--------------------------------------5~-3-0-3-5-7-7-----------
G-|---------------------------------------------------------------------------
D-|---------------------------------------------------------------------------
A-|-----/--/--//-/--/-/---/--/-------/----/-/---/----/----/------//-/----/---/

D-|-0-3-2-0---0--------------2-3-2-0--0----7----------------------------------
A-|---------3--0-3-5-3----5-0-------3~-5-5------------------------------------
D-|-------------------5~-3------------------7---------------------------------
G-|---------------------------------------------------------------------------
D-|---------------------------------------------------------------------------
A-|-----/------/------/---/--/------/--/----/---------------------------------

D-|-0--------------0--------0-------------------------------------------------
A-|--------0-5-1-0--0-3~-1-0-5-3----------------------------------------------
D-|--0-3-5~---------------------5~--------------------------------------------
G-|---------------------------------------------------------------------------
D-|---------------------------------------------------------------------------
A-|--/---/---/---/--/----/--/---/---------------------------------------------

D-|---------------------------------------------------------------------------
A-|---------------------------------------------------------------------------
D-|-3-0-3-2-0---0------------------10-7-----7---------------------------------
G-|----------3-2-7----7-5~-5-7~-9-9----9->10-9-9-7p5-5-7~9--------------------
D-|---------------5~-7----7------7------------7-----7-------------------------
A-|---/------/--/-/--/--/--/----/-/---/----/-/-/---/-/---/--------------------

D-|0--5-5--------0------------------------------------------------------------
A-|-0--7-7-5-0h3--3-------0-5-10~n-10~->8-5-----------------------------------
D-|----------------5~-3-5~---7------------------------------------------------
G-|---------------------------------------------------------------------------
D-|---------------------------------------------------------------------------
A-|-/--/-/---/---/-/----/---//-/----/-----/-----------------------------------
<bài viết được chỉnh sửa lúc 03.11.2007 01:24:06 bởi GuitarVongCo >
 
#31
    GuitarVongCo

    • Số bài : 96
    • Điểm thưởng : 0
    • Từ: 06.01.2006
    • Trạng thái: offline
    Lý Con Sáo - Dây Đào 20.07.2006 11:33:42 (permalink)
    Lý Con Sáo - Dây Đào

    Của NS Văn Lắm



    Khúc Dạo
    D-|----------------0-----0------0-3-2-3-2-0--------0--------------------------
    A-|---------------0-----0-1n~1-0-----------1-3-1-0--1-------------------------
    D-|---5h7-5~-3-0-0--3-5~--------------------------3--0h3-0-0-0-5~-------------
    G-|---------------------------------------------------------------------------
    D-|-------------0-------------------------------------------------------------
    A-|-//----/----/-/--/---/-8--/--/---/------/------/-/----/----16--------------
    Bắt đầu vô
    D-|----------------------------------------------0----------------------------
    A-|--------------------0-----------------0-1----0-----------------------------
    D-|-5n-5~(5n)5~5-5n-5~0--5-3-3-5-3~0-3-5~----0-3---5n-5~----------------------
    G-|-----------------------------------------2-----------7---------------------
    D-|---------------------------------------------------------------------------
    A-|-/--/--/--/-/----/--/---8-/---/---/---/--/---/--/---16---------------------


    D-|------------------------------------------------0--------------------------
    A-|------------------------------------0-1-0------0---------------------------
    D-|-----------------------------------------3----3--5n-5~---------------------
    G-|---------7-9-10-9-7---7--------7-7-7------2n-2--------7--------------------
    D-|---7-7-10----------10~-10-7-10~---0----------------------------------------
    A-|-//-/----/-/--------/-----/----8-/-/----/-/--/-/--/--16--------------------

    D-|-----------2---3-3p2------------------0-3---0---3--------------------------
    A-|----0-3--5~-----0----5n-5-3-1n--3-1-0----0-3-5-5-1n-0----0-----------------
    D-|-------------------------------------3--------0------3-5~------------------
    G-|-7-7-----------------------------------------------------------------------
    D-|--0------------------------------------------------------------------------
    A-|-/-/--/----/----/--/----/---8-----/--/---/---/-/-/---/--16-----------------

    D-|-----0-------------------------------------0-3-2-3-2-0----0----------------
    A-|-0--0-1-0-----------------------0-1n-3~-1-0-----------1-0--1-0-------------
    D-|---3-----5--3-0------------0-3-5-0-----------------------3----5~-3-5~------
    G-|--0------------3-2---------------------------------------------------------
    D-|------------------3-0-0-3-0------------------------------------------------
    A-|--/-/-/-------/-----/-----/----/--8-----/--/---/------/--/-/--/---16-------

    D-|------0-------------------------0-3-2-0----0-------------------------------
    A-|-------0--------------0-1n-3-1-0-------1-0--1-0----------------------------
    D-|-5n-5~--3-0------0-3-5-0------------------3----5~-3-5~---------------------
    G-|-----------3-2-------------------------------------------------------------
    D-|--------------3-0----------------------------------------------------------
    A-|-/--/--/--/--/--/----/--8----/--/---/--/--/-/--/---16----------------------



    <bài viết được chỉnh sửa lúc 10.11.2006 04:08:41 bởi GuitarVongCo >
     
    #32
      GuitarVongCo

      • Số bài : 96
      • Điểm thưởng : 0
      • Từ: 06.01.2006
      • Trạng thái: offline
      Hoài Cầu - Dây Đào 05.08.2006 10:42:44 (permalink)
      Hoài Cầu - Dây Đào 8 câu - nhịp 2

      Đây là bài của NS Văn Vỉ - NS Văn Vỉ muốn phổ biến những bài bản cho chúng ta để cùng nhau học hỏi và được lưu truyền mãi mãi.



      Khúc dạo đầu
      D-|---------------------------------------------------------------------------
      A-|--Từ câu 5 đến câu 8 ------------------------------------------------------
      D-|--------------------------3-2-0---0-0--------------------------------------
      G-|--------------------------------5~-----------------------------------------
      D-|-----------------------------------0---------------------------------------
      A-|----------------------------/-----/-/--------------------------------------

      Vô Bài câu 1
      D-|-------------0-------------------------------------------------------------
      A-|-----0h3-3~0---------------------------------------------------------------
      D-|---------------------------------------------------------------------------
      G-|---------------------------------------------------------------------------
      D-|---------------------------------------------------------------------------
      A-|-----/---/---/-------------------------------------------------------------
      Câu 2
      D-|-0-2-3-2-0-------0-3-2-0---0-----------------------------------------------
      A-|------------------------0-3------------------------------------------------
      D-|---------------------------------------------------------------------------
      G-|---------------------------------------------------------------------------
      D-|---------------------------------------------------------------------------
      A-|-----/---/-----------/-----/-----------------------------------------------
      Câu 3
      D-|--0-0-----------0----------------------------------------------------------
      A-|-----3-0-------0-3~--------------------------------------------------------
      D-|-0------------0------------------------------------------------------------
      G-|---------------------------------------------------------------------------
      D-|---------------------------------------------------------------------------
      A-|--/----/-------/-/---------------------------------------------------------
      Câu 4
      D-|---0-----------------------------------------------------------------------
      A-|----3~0---0-1-3-1-0--------------------------------------------------------
      D-|-------5~----------5~------------------------------------------------------
      G-|---------------------------------------------------------------------------
      D-|---------------------------------------------------------------------------
      A-|----/--/----/------/-------------------------------------------------------
      Câu 5
      D-|----000-0-0-2--------------------------------------------------------------
      A-|---------------------------------------------------------------------------
      D-|--5----0-------------------------------------------------------------------
      G-|-0-------------------------------------------------------------------------
      D-|---------------------------------------------------------------------------
      A-|--/---/-/---/--------------------------------------------------------------
      Câu 6
      D-|-3-2-3-2-0---0-3----0------------------------------------------------------
      A-|----------3~----0-3~-------------------------------------------------------
      D-|---------------------------------------------------------------------------
      G-|---------------------------------------------------------------------------
      D-|---------------------------------------------------------------------------
      A-|---/------/-----/---/------------------------------------------------------
      Câu 7
      D-|---0-----------------------------------------------------------------------
      A-|------------0--------------------------------------------------------------
      D-|-0----3-3-5~---------------------------------------------------------------
      G-|---------------------------------------------------------------------------
      D-|---------------------------------------------------------------------------
      A-|---/--/-/---/--------------------------------------------------------------
      Câu 8
      D-|---------------------------------------------------------------------------
      A-|-0-5-5-3-0-----------------------------------------------------------------
      D-|-------------5-3-2-0-------------------------------------------------------
      G-|---------------------------------------------------------------------------
      D-|---------------------------------------------------------------------------
      A-|---/-----/-----/---/-------------------------------------------------------
      Nếu đờn tiếp thì Chầu:
      D-|---------------------------------------------------------------------------
      A-|---------------------------------------------------------------------------
      D-|-----------------------------3-2-0---0--0----------------------------------
      G-|----------------------------------5~---------------------------------------
      D-|---------------------------------------0-----------------------------------
      A-|-------------------------------/-----/--/----------------------------------
      <bài viết được chỉnh sửa lúc 05.08.2006 10:45:34 bởi GuitarVongCo >
       
      #33
        GuitarVongCo

        • Số bài : 96
        • Điểm thưởng : 0
        • Từ: 06.01.2006
        • Trạng thái: offline
        Lưu Thủy Hành Vân - Dây Đào 18.08.2006 00:03:08 (permalink)
        Lưu Thủy Hành Vân - Dây Đào 7 Câu

        Đây là bài của NS Văn Vỉ - NS Văn Vỉ muốn phổ biến những bài bản cho chúng ta để cùng nhau học hỏi và được lưu truyền mãi mãi.



        Khúc dạo đầu
        D-|---------------------------------------------------------------------------
        A-|---------------------------------------------------------------------------
        D-|---Từ-câu 4 đến-Câu 7...-----0-0-0-0-0-0-----------------------------------
        G-|---------------------------------------------------------------------------
        D-|--------------------------------------0------------------------------------
        A-|---------------------------------/---/-/-----------------------------------
        Vô Bài
        Câu 1
        D-|-----0-------2-0---0-------------------------------------------------------
        A-|----------------3~0--------------------------------------------------------
        D-|---------------------------------------------------------------------------
        G-|---------------------------------------------------------------------------
        D-|---------------------------------------------------------------------------
        A-|-----/----------/--/-------------------------------------------------------
        Câu 2
        D-|-0-2-3-2-0-------0-3-2-3-2-0-----------------------------------------------
        A-|----------------------------3~---------------------------------------------
        D-|---------------------------------------------------------------------------
        G-|---------------------------------------------------------------------------
        D-|---------------------------------------------------------------------------
        A-|-----/---/-----------/------/----------------------------------------------
        Câu 3
        D-|-0-------------------------------------------------------------------------
        A-|3-3~0--------0-1-3-1-0-----------------------------------------------------
        D-|-----5~---------------5~---------------------------------------------------
        G-|---------------------------------------------------------------------------
        D-|---------------------------------------------------------------------------
        A-|--/--/---------/------/----------------------------------------------------
        Câu 4
        D-|--------------0-2----------------------------------------------------------
        A-|---5-5-5-----5-------------------------------------------------------------
        D-|--5---------0--------------------------------------------------------------
        G-|-0-------------------------------------------------------------------------
        D-|---------------------------------------------------------------------------
        A-|--/----/-----/--/----------------------------------------------------------
        Câu 5
        D-|-3^2-3-2-0--0-3------------------------------------------------------------
        A-|----------3~---0-3~5-------------------------------------------------------
        D-|---------------------------------------------------------------------------
        G-|---------------------------------------------------------------------------
        D-|---------------------------------------------------------------------------
        A-|---/------/----/---/-------------------------------------------------------
        Câu 6
        D-|---------------------------------------------------------------------------
        A-|--5-5-3-0----0-3-0---------------------------------------------------------
        D-|-0----------------5-3------------------------------------------------------
        G-|---------------------------------------------------------------------------
        D-|---------------------------------------------------------------------------
        A-|--/-----/--------/--/------------------------------------------------------
        Câu 7
        D-|---------------------------------------------------------------------------
        A-|---------------------------------------------------------------------------
        D-|-2-3-2-0-------------------------------------------------------------------
        G-|---------------------------------------------------------------------------
        D-|---------------------------------------------------------------------------
        A-|-/-----/-------------------------------------------------------------------
        Nếu Đờn tiếp thì chầu
        D-|---------------------------------------------------------------------------
        A-|---------------------------------------------------------------------------
        D-|---------------------------0-0-0-0-0-0-------------------------------------
        G-|---------------------------------------------------------------------------
        D-|------------------------------------0--------------------------------------
        A-|-------------------------------/---/-/-------------------------------------
        <bài viết được chỉnh sửa lúc 18.08.2006 01:23:06 bởi GuitarVongCo >
         
        #34
          GuitarVongCo

          • Số bài : 96
          • Điểm thưởng : 0
          • Từ: 06.01.2006
          • Trạng thái: offline
          Lý Sâm Thương - Dây Đào 18.08.2006 05:17:14 (permalink)
          Lý Sâm Thương - Dây Đào 6 Câu - Nhịp 4

          Đây là bài của NS Văn Vỉ - NS Văn Vỉ muốn phổ biến những bài bản cho chúng ta để cùng nhau học hỏi và được lưu truyền mãi mãi.



          Khúc Dạo Đầu
          D-|---0-0---------0-0----------------------------------------------0----------
          A-|------3-3---------0-0----3-3--------0-3------------------0-1---1-...-------
          D-|------Phan---------Xê-------5-5--3-5---0-0-0-3-0-3-5--3-5----3-------------
          G-|----------------------------xang-----------------xang----------------------
          D-|---------------------------------------Liu---------------------------------
          A-|-----/--/--------/--/------/--/-----/----/-/-------/-------/---------------
          Vô Bài
          Câu 1
          D-|----0-0-0-0--------------------------------cống----------------------------
          A-|...0-----1-1-0-----0-------0---------------0-1n----------------------------
          D-|--------------5~-5~-0-0-5~--0-0-5~--3-5-3-5--------------------------------
          G-|--Xê--------xang-------xang------------------------------------------------
          D-|---------------------------------------------------------------------------
          A-|---4/----/-/--8--/--/---/12-/---/-----/-----16-----------------------------
          Cau 2
          D-|-----------0-0-0-----------------------------------------------------------
          A-|-1n~1-1-1~0---1-1-0-----0--------0---1--0-5-5-3----------------------------
          D-|---------xe--------5~-5~--0-0-5~--0-3----------5~--------------------------
          G-|-----------------xang-------xang-------------xang--------------------------
          D-|---------------------------------------------------------------------------
          A-|-/----/-/-4/--/-/--8--/---/---/12-/--/----/----16--------------------------
          Câu 3
          D-|-----------xê--0-0----------------------------cống-------------------------
          A-|------------0-0-1-1n0-----0--------0---------0-1n--------------------------
          D-|-0-3-1-0--0----------5~-5~-0-0-5~---0-0-5~3-5------------------------------
          G-|--------5~-5~-------xang--------xang---------------------------------------
          D-|---------------------------------------------------------------------------
          A-|-/------/--/4-/-/-/--8--/--/---/-12-/---/---/--16--------------------------
          Câu 4
          D-|------0--0-0-0-0-----------------------------------------------------------
          A-|-1-1n~-0------1-1n0-----0----------0---1-0-5-5-3---------------------------
          D-|-------xê----------5~-5~-0-0-5~-----0-3---------5~-------------------------
          G-|------------------xang-------xang--------------xang------------------------
          D-|---------------------------------------------------------------------------
          A-|/--/--/4-/----/-/--8--/--/---/---12-/--/--/-----16-------------------------
          Câu 5
          D-|--------------xê---------------------------xê------------------------------
          A-|-0-3-1-0-------0-3~-0-0-0-3~5---5-5-3------0-0-5--3~-0---------------------
          D-|--------5~-3-5~------3-3---liu-0-----3-3-5~-----------5-3-2-0-liu----------
          G-|---------------------------------------------------------------------------
          D-|---------------------------------------------------------------------------
          A-|-/------/----/-4----/-/-/---8---/----/-/---12--/-----/--/---16-------------
          Câu 6
          D-|-----------0-------xê-----------------------xê-0---------------------------
          A-|-------------1-0---0-0-0-0-3~5---5--5-3------0---1-0-----------------------
          D-|-0-3-2-0--0------5~---3-3---liu-0------3-3-5~-------5-3-2-0-liu------------
          G-|--------5~-----------------------------------------------------------------
          D-|---------------------------------------------------------------------------
          A-|-----/----/--/-----4-/-/-/---8---/-----/-/--12-/---/--/---16---------------
          <bài viết được chỉnh sửa lúc 06.09.2006 01:11:02 bởi GuitarVongCo >
           
          #35
            GuitarVongCo

            • Số bài : 96
            • Điểm thưởng : 0
            • Từ: 06.01.2006
            • Trạng thái: offline
            Khóc Hoàng Thiên - Dây Đào 06.09.2006 10:21:26 (permalink)
            Khóc Hoàng Thiên (hơi Quãng) - Dây Đào 12 Câu - Nhịp 2

            Đây là bài của NS Văn Vỉ - NS Văn Vỉ muốn phổ biến những bài bản cho chúng ta để cùng nhau học hỏi và được lưu truyền mãi mãi.



            Khúc Dạo Đầu
            D-|--5-4-2-5------------------------------------------------------------------
            A-|-2-------5-5-3-2-5-0-2-----------------------------------------------------
            D-|----------------------5-5--------------------------------------------------
            G-|------------------------0--------------------------------------------------
            D-|---------------------------------------------------------------------------
            A-|---------------------------------------------------------------------------
            Câu 1
            D-|----0----------------------------------------------------------------------
            A-|-----2-0--------------0-2-(Cống)-------------------------------------------
            D-|--------5--5-5-5-5-5-5-----------------------------------------------------
            G-|------(xang)--------4------------------------------------------------------
            D-|---------------------------------------------------------------------------
            A-|-/-/-/--4------/---/-/--8--------------------------------------------------
            Câu 2
            D-|-----------0-0-------------------------------------------------------------
            A-|-2-2-2-2n-2-2-2-0----0-2-5-2-0-0-2-----------------------------------------
            D-|-----------------5~-5---------5--------------------------------------------
            G-|-------------------4-------------------------------------------------------
            D-|----------------(xang)----------(cống)-------------------------------------
            A-|-----/----/-/----4--/--/------/--8-----------------------------------------

            Câu 3
            D-|-----2-2-2-5-2-5-2-0-------0-2-0-2-5---------------------------------------
            A-|--------------------2-0-0-2---------5--------------------------------------
            D-|---------------(cống)--5-----------(liu)-----------------------------------
            G-|---------------------------------------------------------------------------
            D-|---------------------------------------------------------------------------
            A-|-/-------/---/------4--/--/--/------8--------------------------------------
            Câu 4
            D-|--------0-5-4-2-5^2-5-2-0--------------------------------------------------
            A-|---2-2-2-----------------2-0--0-2------------------------------------------
            D-|-------------(u)------------5~---------------------------------------------
            G-|-------------------------------(cống)--------------------------------------
            D-|---------------------------------------------------------------------------
            A-|-/-----/--/---4---/------/--/---8------------------------------------------
            Câu 5
            D-|-2^-0-2-0-0----------0-0---------------------------------------------------
            A-|---------3-2--------0-2-2-0------------------------------------------------
            D-|--------(cống)-0-2-5-------5-----------------------------------------------
            G-|------------------------(xang)---------------------------------------------
            D-|---------------------------------------------------------------------------
            A-|/---/----/-4-----/--/-/----8-----------------------------------------------
            Câu 6
            D-|---------------------------------------------------------------------------
            A-|-------0-----(hò)----------0-2---------------------------------------------
            D-|--4-4-4-4-2-5-0-0-2-5-4-2-5---5--------------------------------------------
            G-|---------------4--------------(xang)---------------------------------------
            D-|---------------------------------------------------------------------------
            A-|-/----/-/-----4-/---/---/-----8--------------------------------------------
            Câu 7
            D-|----------0-2-5-2-0-0-2-5-2-0----------------------------------------------
            A-|-----2-2-2---------2---------2-5-0-----------------------------------------
            D-|--5--------------(cống)-----------4-2--------------------------------------
            G-|-0----------------------------------(xự)-----------------------------------
            D-|---------------------------------------------------------------------------
            A-|--/------/--/------4--/------/---/--8--------------------------------------
            Câu 8
            D-|---------------------------------------------------------------------------
            A-|--------------(hò)------------0--------------------------------------------
            D-|-0-0-4-2-0-2-5-0-0-0-4-2-0-2-5-7-------------------------------------------
            G-|-------------------------------(xê)----------------------------------------
            D-|----------------0----------------------------------------------------------
            A-|-/-----/---/---4-/-----/---/---8-------------------------------------------
            Câu 9
            D-|-0-0-------0---0-----------------------------------------------------------
            A-|--2-2-0-0-2-0-2-0-2-0------------------------------------------------------
            D-|-------5--(xê)-------5-2---------------------------------------------------
            G-|----------------------(xự)-------------------------------------------------
            D-|---------------------------------------------------------------------------
            A-|--/----/--/-4-/-/---/------------------------------------------------------
            Câu 10
            D-|--2-2-2-5-2-5-2-0-------2-2-5---2-2-(u)------------------------------------
            A-|-----------------2--2-5~-----2-5-------------------------------------------
            D-|-------------------5-------------------------------------------------------
            G-|---------------(cống)------------------------------------------------------
            D-|---------------------------------------------------------------------------
            A-|-/----/---/------4--/---/----/----8----------------------------------------
            Câu 11
            D-|-0-0-------0---0-----------------------------------------------------------
            A-|--2-2-0-0-2-0-2-0-2-0------------------------------------------------------
            D-|-------5-------------5-2---------------------------------------------------
            G-|-----------(xê)--------(xự)------------------------------------------------
            D-|---------------------------------------------------------------------------
            A-|--/----/--/-4-/-/------8---------------------------------------------------
            Câu 12
            D-|------2-2-2-5-2-0------------2-2-(u)---------------------------------------
            A-|-----------------2-------2-5~----------------------------------------------
            D-|---------------(cống)---5--------------------------------------------------
            G-|---------------------------------------------------------------------------
            D-|---------------------------------------------------------------------------
            A-|--/-------/---/--4-------/---/-/-8-----------------------------------------
            <bài viết được chỉnh sửa lúc 13.09.2006 23:34:06 bởi GuitarVongCo >
             
            #36
              GuitarVongCo

              • Số bài : 96
              • Điểm thưởng : 0
              • Từ: 06.01.2006
              • Trạng thái: offline
              Long Hổ Hội - Dây Đào 08.09.2006 07:04:20 (permalink)
              Long Hổ Hội - Dây Đào 7 Câu - Nhịp 1

              Đây là bài của NS Văn Vỉ - NS Văn Vỉ muốn phổ biến những bài bản cho chúng ta để cùng nhau học hỏi và được lưu truyền mãi mãi.



              Câu 1
              D-|---------------------------------------------------------------------------
              A-|---------------------------------------------------------------------------
              D-|-0-2-0---5-2-5-------------------------------------------------------------
              G-|---------------------------------------------------------------------------
              D-|---------------------------------------------------------------------------
              A-|-/---/---/---/-------------------------------------------------------------
              Câu 2
              D-|---------0-0---------------------------------------------------------------
              A-|-0-2-0----2----------------------------------------------------------------
              D-|---------------------------------------------------------------------------
              G-|---------------------------------------------------------------------------
              D-|---------------------------------------------------------------------------
              A-|-/---/---/-/---------------------------------------------------------------
              Câu 3
              D-|---------------------------------------------------------------------------
              A-|---------------------------------------------------------------------------
              D-|-0-2-5---5-0-5-2-----------------------------------------------------------
              G-|---------------------------------------------------------------------------
              D-|---------------------------------------------------------------------------
              A-|-/---/-----/---/-----------------------------------------------------------
              Câu 4
              D-|---------------------------------------------------------------------------
              A-|------0---2-0--------------------------------------------------------------
              D-|-5-2-0-----0---------------------------------------------------------------
              G-|---------------------------------------------------------------------------
              D-|---------------------------------------------------------------------------
              A-|---/--/---/-/--------------------------------------------------------------
              Câu 5
              D-|----------0----------------------------------------------------------------
              A-|------0----2-0-------------------------------------------------------------
              D-|-5-2-0---------------------------------------------------------------------
              G-|---------------------------------------------------------------------------
              D-|---------------------------------------------------------------------------
              A-|---/--/---/--/-------------------------------------------------------------
              Câu 6
              D-|-0-------------------------------------------------------------------------
              A-|--2-0----------------------------------------------------------------------
              D-|-----5----0-2-5------------------------------------------------------------
              G-|---------------------------------------------------------------------------
              D-|---------------------------------------------------------------------------
              A-|--/--/----/---/------------------------------------------------------------
              Câu 7
              D-|---------------------------------------------------------------------------
              A-|----0------0-2-------------------------------------------------------------
              D-|-2-5------5---0------------------------------------------------------------
              G-|---------------------------------------------------------------------------
              D-|---------------------------------------------------------------------------
              A-|-/--/------/--/------------------------------------------------------------
               
              #37
                GuitarVongCo

                • Số bài : 96
                • Điểm thưởng : 0
                • Từ: 06.01.2006
                • Trạng thái: offline
                Cao Phi - Dây Đào 09.09.2006 12:10:06 (permalink)
                Cao Phi (hơi Quãng) - Dây Đào 8 Câu - Nhịp 2

                Đây là bài của NS Văn Vỉ - NS Văn Vỉ muốn phổ biến những bài bản cho chúng ta để cùng nhau học hỏi và được lưu truyền mãi mãi.



                Khúc dạo đầu: 7 nhịp
                D-|---------0-2-0-2-5-0--2-0--------------------------------------------------
                A-|-2------2----------------3-3--5-3-2-2--3-2-0-0-2-0-------0-2---------------
                D-|(cống)----------(liu)-----------(cống)------------5-4-2-5---0-(hò)---------
                G-|----------------------------------------------(xang)-----------------------
                D-|---------------------------------------------------------------------------
                A-|-/------/--/---/---/-----/-/------/-/------/-/----/---/--/--/--------------

                D-|------------------------0-2-0-5-----(xang)---------------------------------
                A-|---------------------0-2---------------------------------------------------
                D-|--0-2-0-0-2-5-(xang)-------------------------------------------------------
                G-|-4-----4-------------------------------------------------------------------
                D-|---------------------------------------------------------------------------
                A-|-/----/-/---/----------/--/---/-/------------------------------------------
                Vô Bài, Câu 1
                D-|---------------------------------------------------------------------------
                A-|---------------------------------------------------------------------------
                D-|..... 0-0-2-5--------------------------------------------------------------
                G-|------------(xang)---------------------------------------------------------
                D-|---------------------------------------------------------------------------
                A-|------/-/-/-/--------------------------------------------------------------
                Câu 2
                D-|---------------------------------------------------------------------------
                A-|-000-2-0---------------0-2-------------------------------------------------
                D-|--------5-0-(hò)--4-2-5----0-(hò)------------------------------------------
                G-|--------------------------4------------------------------------------------
                D-|---------------------------------------------------------------------------
                A-|/--/---/--/---------/--/--//-----------------------------------------------
                Câu 3
                D-|---------------------------------------------------------------------------
                A-|---------------------------------------------------------------------------
                D-|-----------0-2-5-0---200---0-2-5-------------------------------------------
                G-|---000-2-4------Hò--4-----4--Xang------------------------------------------
                D-|---------------------------------------------------------------------------
                A-|-----/---/---/---/--/--/---/---/-------------------------------------------
                Câu 4
                D-|---------------------------0-----------------------------------------------
                A-|---------5-0-2--5-252-0-0-2-0-(xê)-----------------------------------------
                D-|-----555--5-(cống)-----5---------------------------------------------------
                G-|---------------------------------------------------------------------------
                D-|---------------------------------------------------------------------------
                A-|---/---/--/--/----/----/--/-/----------------------------------------------
                Câu 5
                D-|-----------0--------------(cống)-------------------------------------------
                A-|5-252-0-0-2-0-5-252-0-----0-2----------------------------------------------
                D-|-------5--(xê)-------5-2-5-------------------------------------------------
                G-|---------------------------------------------------------------------------
                D-|---------------------------------------------------------------------------
                A-|--/----/--/-/---/----/---/--/----------------------------------------------
                Câu 6
                D-|---------------------------------------------------------------------------
                A-|-2-2---2-cống----5-252-0-0-0-2-(cống)--------------------------------------
                D-|------------------------5-5------------------------------------------------
                G-|----4----------------------------------------------------------------------
                D-|---------------------------------------------------------------------------
                A-|/-/-/--/-----------/----/-/--/---------------------------------------------
                Câu 7
                D-|------------------------0--------------------------------------------------
                A-|--0-2-5n5-(liu)------3-2-0-2-0-0-------------------------------------------
                D-|-5----------------------------4-2-(xự)-------------------------------------
                G-|---------------------------------------------------------------------------
                D-|---------------------------------------------------------------------------
                A-|--/---/-/-/------------/-/----/-/------------------------------------------
                Câu 8
                D-|---------------(cống)------------------------------------------------------
                A-|------2-0-----0-2----0-2---------------------------------------------------
                D-|-----2---5-2-4----------0-0-2-5--------------------------------------------
                G-|-------------------------4----(xang)---------------------------------------
                D-|---------------------------------------------------------------------------
                A-|-----/---/---/--/----/--/-/---/--------------------------------------------

                D-|---0-2-0-5---------0-------------------------------------------------------
                A-|0-2-------------0-2-0-2-0--------------------------------------------------
                D-|-------------------------4-2-----------------------------------------------
                G-|---------------------------------------------------------------------------
                D-|---------------------------------------------------------------------------
                A-|--/--/---/---/----/-/---/--/-----------------------------------------------


                D-|---------------------------------------------------------------------------
                A-|---2-0-----0-2---0-2-5-----------------------------------------------------
                D-|-2----5-2-4-----------0-0-2-5----------------------------------------------
                G-|-----------------------4---------------------------------------------------
                D-|---------------------------------------------------------------------------
                A-|-/----/---/--/-----/--/-/---/----------------------------------------------
                <bài viết được chỉnh sửa lúc 13.09.2006 23:31:33 bởi GuitarVongCo >
                 
                #38
                  GuitarVongCo

                  • Số bài : 96
                  • Điểm thưởng : 0
                  • Từ: 06.01.2006
                  • Trạng thái: offline
                  Mẩu Tầm Tử - Dây Đào 09.09.2006 13:18:17 (permalink)
                  Mẩu Tầm Tử (hơi Bắc) - Dây Đào 9 Câu - Nhịp 2

                  Đây là bài của NS Văn Vỉ - NS Văn Vỉ muốn phổ biến những bài bản cho chúng ta để cùng nhau học hỏi và được lưu truyền mãi mãi.



                  Dạo
                  D-|---7-5-0---5-0-------------------------------------------------------------
                  A-|------7-3-----5------------------------------------------------------------
                  D-|--7------5-----------------------------------------------------------------
                  G-|---------------------------------------------------------------------------
                  D-|---------------------------------------------------------------------------
                  A-|---------------------------------------------------------------------------
                  Câu 1
                  D-|-7-5-5-----------5-5-0-----------------------------------------------------
                  A-|----7-5(liu)5-0-3-----5(liu)-----------------------------------------------
                  D-|------------------5--------------------------------------------------------
                  G-|---------------------------------------------------------------------------
                  D-|---------------------------------------------------------------------------
                  A-|//--/-/-------/--/-/--/----------------------------------------------------
                  Câu 2
                  D-|---0-5-252-0--------------0-0----------------------------------------------
                  A-|--5---------2------------0-2-2-0-------------------------------------------
                  D-|-0--5-----(cộng)----0-2-5-------5-(xàng)-----------------------------------
                  G-|---------------------------------------------------------------------------
                  D-|---------------------------------------------------------------------------
                  A-|--/-/--/----/---------/--/-/----/------------------------------------------
                  Câu 3
                  D-|-0-0-5-2-0-7-5-------5-7---7v12------9-(cống)------------------------------
                  A-|--------------7---5-7-----------10-12--------------------------------------
                  D-|------------(xừ)-----------------------------------------------------------
                  G-|---------------------------------------------------------------------------
                  D-|---------------------------------------------------------------------------
                  A-|-/-----/---/--/-----/--/---------/---/-------------------------------------
                  Câu 4
                  D-|-----0-9-7-5-5-7-9-(cống)---0-7-5---9-7-5(xang)----------------------------
                  A-|------5--------------------------7-5---------------------------------------
                  D-|---------------------------9-----------------------------------------------
                  G-|---------------------------------------------------------------------------
                  D-|---------------------------------------------------------------------------
                  A-|--/---/----/-----/----------/----/--/---/----------------------------------
                  Câu 5
                  D-|-----7-7-7-9-7-5----5---5-5------------------------------------------------
                  A-|----------------7----5-7--(Xang)-------------------------------------------
                  D-|--------------(Xự)---------------------------------------------------------
                  G-|---------------------------------------------------------------------------
                  D-|---------------------------------------------------------------------------
                  A-|--/------/---/--/----/--/-/-/----------------------------------------------
                  Câu 6
                  D-|-0-0-5-2-0-7-5-------5-7-9-7-5-7-9-5-7-------------------------------------
                  A-|--------------7---5-7---------------(xê)-----------------------------------
                  D-|-----------(xự)------------------------------------------------------------
                  G-|---------------------------------------------------------------------------
                  D-|---------------------------------------------------------------------------
                  A-|-/-----/---/--/-----/----/---/-------/-------------------------------------
                  Câu 7
                  D-|-7-7-7-5-------------------------------------------------------------------
                  A-|--------7-5----------0-2-0-------------------------------------------------
                  D-|-----------7-5--0-2-5---0-7------------------------------------------------
                  G-|--------------7---------(xê)-----------------------------------------------
                  D-|-----------(hò)------------------------------------------------------------
                  A-|-----/--/--/--/---/--/--/-/------------------------------------------------
                  Câu 8
                  D-|---0-5-252-0----------0-0--------------------------------------------------
                  A-|------------2--------0-2-2-0-----------------------------------------------
                  D-|--7-5--(cộng)---0-2-5-------5(xàng)----------------------------------------
                  G-|---------------------------------------------------------------------------
                  D-|-7-------------------------------------------------------------------------
                  A-|--/-/--/----/-----/--/-/----/----------------------------------------------
                  Câu 9
                  D-|---0-5-7-5----------------5-5-0--------------------------------------------
                  A-|----------7-5---------5--3-----5-(liu)-------------------------------------
                  D-|--5----------7-(xề)----7---5-----------------------------------------------
                  G-|-0-------------------------------------------------------------------------
                  D-|---------------------------------------------------------------------------
                  A-|--/----/--/--/---------/--/-/--/-------------------------------------------
                  <bài viết được chỉnh sửa lúc 13.09.2006 23:30:22 bởi GuitarVongCo >
                   
                  #39
                    GuitarVongCo

                    • Số bài : 96
                    • Điểm thưởng : 0
                    • Từ: 06.01.2006
                    • Trạng thái: offline
                    Kim Tiền Huế - Dây Đào 13.09.2006 23:24:46 (permalink)
                    Kim Tiền Huế (hơi Bắc)- Dây Đào 13 câu - Nhịp 2

                    Đây là bài của NS Văn Vỉ - NS Văn Vỉ muốn phổ biến những bài bản cho chúng ta để cùng nhau học hỏi và được lưu truyền mãi mãi.



                    Dạo
                    D-|--777-7-7-7-5-0-5---5------------------------------------------------------
                    A-|---------0---7-5-0-3--5n-5-------------------------------------------------
                    D-|---------------------5---0-------------------------------------------------
                    G-|---------------------------------------------------------------------------
                    D-|---------------------------------------------------------------------------
                    A-|---------------------------------------------------------------------------
                    Câu 1
                    D-|---5-7-5-----------5-5-0---------------------------------------------------
                    A-|--7-----5-----5-0-3-----5-(liu)--------------------------------------------
                    D-|-------(liu)--------5------------------------------------------------------
                    G-|---------------------------------------------------------------------------
                    D-|---------------------------------------------------------------------------
                    A-|/-/--/--/-------/--/-/--/--------------------------------------------------
                    Câu 2
                    D-|---0-5-7-7-5-------0-5^2-0-0-----------------------------------------------
                    A-|--5-----0---7-(u)-5-------2-0-(xề)-----------------------------------------
                    D-|-0-------------------------------------------------------------------------
                    G-|---------------------------------------------------------------------------
                    D-|---------------------------------------------------------------------------
                    A-|--/----/-/--/------/---/--/-/----------------------------------------------
                    Câu 3
                    D-|----14^12-12-14^10-10-12^9-9--12^7-7-5-----5-7-(Xê)------------------------
                    A-|------------------------(cống)--------7-5-7--------------------------------
                    D-|---------------------------------------------------------------------------
                    G-|---------------------------------------------------------------------------
                    D-|---------------------------------------------------------------------------
                    A-|-/---------/--------/------/-------/--/---/--/-----------------------------
                    Câu 4
                    D-|-9-9-7-5-5-7-9-5-7---(xê)------0-0-0-5^2-0---------------------------------
                    A-|-------------------------------------------0-(xề)--------------------------
                    D-|---------------------------------------------------------------------------
                    G-|---------------------------------------------------------------------------
                    D-|---------------------------------------------------------------------------
                    A-|-/-----/-----/---/---------/-------/---/---/-------------------------------
                    Câu 5
                    D-|-----2-2-2-5^2-0----------------0-0-0-5^2-0--------------------------------
                    A-|-----------------2h5--------2---------------0-(xề)-------------------------
                    D-|-----------------(cộng)----------------------------------------------------
                    G-|---------------------------------------------------------------------------
                    D-|---------------------------------------------------------------------------
                    A-|-/-------/---/---/----------/-------/---/---/------------------------------
                    Câu 6
                    D-|------0-------------0-2-2-0------------------------------------------------
                    A-|-0-0-0--0-2-(cộng)----------------0-(xê)-----------------------------------
                    D-|-------5-------------------2-0-2-5-7---------------------------------------
                    G-|---------------------------------------------------------------------------
                    D-|---------------------------------------------------------------------------
                    A-|/----/-/--/-----------/----/---/---/---------------------------------------
                    Câu 7
                    D-|-0-0-------0---------------------------------------------------------------
                    A-|--2-2-0-0-2-0(xê)-000-0-0-2-0----------------------------------------------
                    D-|-------5-------------------0-7(xê)-----------------------------------------
                    G-|---------------------------------------------------------------------------
                    D-|---------------------------------------------------------------------------
                    A-|--/----/--/-/-------/---/--/-/---------------------------------------------
                    Câu 8
                    D-|--0------------------------------------------------------------------------
                    A-|-2-0-2-0-------------------------------------------------------------------
                    D-|--------5-2(xự)-5-0-2-5-(xang)---------------------------------------------
                    G-|---------------------------------------------------------------------------
                    D-|---------------------------------------------------------------------------
                    A-|-/-/---/--/-----/-/-/-/----------------------------------------------------
                    Cau 9
                    D-|-------0-0---------------------0-0-----------------------------------------
                    A-|------0-2-2-0-------------------2-2-0--------------------------------------
                    D-|-0-2-5-------5(xang)-5-5-5-5-5-------5(xang)-------------------------------
                    G-|---------------------------------------------------------------------------
                    D-|---------------------------------------------------------------------------
                    A-|---/--/-/----/-----------/---/--/----/-------------------------------------
                    Câu 10
                    D-|----------0-----------------0-0--------------------------------------------
                    A-|-0-0-2-0-2-0-(xê)--0-0-0-0-0-2-2-0-----------------------------------------
                    D-|--5-------------------------------5----------------------------------------
                    G-|-------------------------------(Xang)--------------------------------------
                    D-|---------------------------------------------------------------------------
                    A-|--/--/---/-/-----------/---/-/----/----------------------------------------
                    Câu 11
                    D-|----------0---------0------------------------------------------------------
                    A-|-0-0-2-0-2-0-(xê)--2-0-2-0-------------------------------------------------
                    D-|--5-----------------------5-2(xự)------------------------------------------
                    G-|---------------------------------------------------------------------------
                    D-|---------------------------------------------------------------------------
                    A-|--/--/---/-/-------/-/---/--/----------------------------------------------
                    Câu 12
                    D-|-------------------------(xê)----------------------------------------------
                    A-|--------------------------0------------------------------------------------
                    D-|-5-0---0-5-2----0-2-0-2-5--------------------------------------------------
                    G-|----------(xự)-------------------------------------------------------------
                    D-|---------------------------------------------------------------------------
                    A-|-/-/---/---/--/---/---/---/------------------------------------------------
                    Câu 13
                    D-|--0------------------------------------------------------------------------
                    A-|-2-0-2-0-------------------------------------------------------------------
                    D-|--------5-2-(xự)---5n-0-5n-2(xự)-------------------------------------------
                    G-|---------------------------------------------------------------------------
                    D-|---------------------------------------------------------------------------
                    A-|-/-/---/--/--------/--/-/--/-----------------------------------------------
                    <bài viết được chỉnh sửa lúc 13.09.2006 23:26:57 bởi GuitarVongCo >
                     
                    #40
                      GuitarVongCo

                      • Số bài : 96
                      • Điểm thưởng : 0
                      • Từ: 06.01.2006
                      • Trạng thái: offline
                      Nặng Tình Xưa - Dây Đào 14.09.2006 02:21:58 (permalink)
                      Nặng Tình Xưa (hơi Nam) - Dây Đào 9 câu - Nhịp 4 = 16 nhịp con

                      Đây là bài của NS Văn Vỉ - NS Văn Vỉ muốn phổ biến những bài bản cho chúng ta để cùng nhau học hỏi và được lưu truyền mãi mãi.



                      Dạo
                      D-|-777-9n---0-7-0-------0----------------------------------------------------
                      A-|---------9-9-0----0h3~-5---------------------------------------------------
                      D-|-------7-------3--------0--------------------------------------------------
                      G-|---------------------------------------------------------------------------
                      D-|---------------------------------------------------------------------------
                      A-|---------------------------------------------------------------------------
                      Câu 1
                      D-|----3-2-0-----------0-0-3-----0----------0-3^2-0------0-0-3-----0----------
                      A-|---------0h3-------------0-0-3-5--------5-------0h3--------0-0-3-5-(liu)---
                      D-|---------(phạn)-----------3----(liu)---0-------(phạn)-------3--------------
                      G-|---------------------------------------------------------------------------
                      D-|---------------------------------------------------------------------------
                      A-|-/-/--/--4----------/----/-/---8-------/-/---/-12-----/----/-/--16---------
                      Cau 2
                      D-|--0----------3-2-0-3--------0-------3-2-3-2-0-3----------------------------
                      A-|-0-0-3~5----------1-1-0----0-0-3~5-----------1-1-0-------------------------
                      D-|------(liu)------------5~55-----(liu)-------------5------------------------
                      G-|--------------------(xàng)------------------(xàng)-------------------------
                      D-|---------------------------------------------------------------------------
                      A-|-/-/---/--4----/--/-/--8---/-/---/12--/------/-/-16------------------------
                      Câu 3
                      D-|----------7-5~-----0-3-2-0-3-2-0-----------0-3-0-3-------0-----------------
                      A-|---------0---7--5-0-----0-------0h3-333-3n3-5-0---0-3n-3~-5(liu)-----------
                      D-|--555-5-5---(u)----------------(phạn)-----------3--------------------------
                      G-|---------------------------------------------(xê)--------------------------
                      D-|---------------------------------------------------------------------------
                      A-|----/---/-/--4----/----/-/------8-----/---/-/12-/-/----/--16---------------
                      Câu 4
                      D-|-------7-5~-----0-3-2-2-3-2-0------------0-3-0-3---------------------------
                      A-|--5-5-0---7--5-0-----0-------2h3-333-3n3~-5-0---0-0-5--0-5--(liu)----------
                      D-|-0-------(u)---------------(phạn)-------------3------5~-3------------------
                      G-|------------------------------------------(xê)-----------------------------
                      D-|---------------------------------------------------------------------------
                      A-|-/--/--/--4----/----/-/------8-----/---/--/12-/-/----/---16----------------
                      Câu 5
                      D-|--------0-3---------------------0---0-0-12-9--------------0---------0-12-9-
                      A-|-555-5-5---0-3~5-----555-5-5-0-3-5----------12-9-12-10~------9-10~12--(cống)
                      D-|-------------(liu)----------3-(liu)-------------------12---12--------------
                      G-|----------------------------------------------------(lìu)------------------
                      D-|---------------------------------------------------------------------------
                      A-|---/---/---/---4-------/---/-/---8--/------/---/------12----/--/----/----16
                      Câu 6
                      D-|-0-0-12-9------------0---------0-9-7--7-7-7-7-7-0-9-7-9-7-9-7-0-7-5~0h3----
                      A-|---------12-9-12-10~----9-10~12-(xe^)------------5--------------------(xự)-
                      D-|-------------------12-12--------------------------(xê)---------------------
                      G-|----------------(lìu)------------------------------------------------------
                      D-|---------------------------------------------------------------------------
                      A-|-/------/---/------4--/----/---/---8------/---/--/-12-/----/----/----16----
                      Câu 7
                      D-|-333-3-3-0-9-7--9-7-9-7-0-7-5~0h3---333-3-3-9-7-5~0h3--333-3-3-9-7-5~0h3---
                      A-|----------5-(xê)-------------(xự)-----------------(xự)---------------(xự)--
                      D-|---------------------------------------------------------------------------
                      G-|---------------------------------------------------------------------------
                      D-|---------------------------------------------------------------------------
                      A-|---/---/--/--4--/-----/---/---8-------/---/---/----12----/---/---/----16---
                      Câu 8
                      D-|-333-3-3-3-2-0-------0-0-3-----0----------2-3-2-3-2-0-----0-0-3-----0------
                      A-|--------------0h3---------0-0-3-5--------5-----------0h3-------0-0-3-5-----
                      D-|--------------(phạn)-------3----(liu)---0-----------(phạn)------3---(liu)--
                      G-|---------------------------------------------------------------------------
                      D-|---------------------------------------------------------------------------
                      A-|---/---/---/---4-----/----/-/---8----/---/----/-----12----/----/-/---16----
                      Câu 9
                      D-|--0----------3-2-0-3--------0-----------3-2-0-3----------------------------
                      A-|-0-0-3~5----------1-1-0----0-0-3~5-----------1-1-0-------------------------
                      D-|------(liu)------------5~-------(liu)-------------5------------------------
                      G-|--------------------(xàng)------------------(xàng)-------------------------
                      D-|---------------------------------------------------------------------------
                      A-|-/-/---/--4----/--/-/--8---/-/---/-12-----/--/-/--16-----------------------
                      <bài viết được chỉnh sửa lúc 14.09.2006 05:13:13 bởi GuitarVongCo >
                       
                      #41
                        GuitarVongCo

                        • Số bài : 96
                        • Điểm thưởng : 0
                        • Từ: 06.01.2006
                        • Trạng thái: offline
                        Vọng Cổ 6 Câu Cơ Bản - Dây Kép 15.09.2006 08:46:15 (permalink)
                        6 Câu Vọng Cổ Cơ Bản - Dây Kép

                        Đây là bài của NS Văn Vỉ - NS Văn Vỉ muốn phổ biến những bài bản cho chúng ta để cùng nhau học hỏi và được lưu truyền mãi mãi.




                        Dạo
                        D-|-5-5-5-----8-5-5-8-5---5--------0---2--------------------------------------
                        A-|------------------6-6n5-6n5--------2-5-3~2-------------5---------3~--------
                        D-|----------------------------------5-------0-0-0-0-8-5-8-8-0-5-5-5-0-0-3---5
                        G-|-----------------------------------------------------------------------5~3-
                        D-|---------------------------------------------------------------------------
                        A-|-----/-/-----/---/-/-/-/-/--/-----/-/--/--/-----/---/--/--/-----/-/----/--/

                        Câu 1 : Hò, Xê, Xang, Cống
                        Hò nhịp 17-20
                        D-|------------2-5-----------------------0--2---------------------------------
                        A-|-----------2-5-3n3~2-----------------5--2-5-3~-----------------------------
                        D-|-5-----5--5---------0-0-0-0-3-5-0-5-8--5------5----------------------------
                        G-|---------0-----------------------------------------------------------------
                        D-|---------------------------------------------------------------------------
                        A-|-/-/-----/4-/-/--/--8-----/---/---/-12-/-/--/-16---------------------------
                        Xê nhịp 21-24
                        D-|-----5-5-8-5-5---5-5-8-5--0-0-5-2---------------------0-5------------------
                        A-|------5-----5-8n8~------6n-------5-2-5-3~--2h3---------6-6-5(SL chánh)-----
                        D-|--------------------8-------------------5-5--------------------------------
                        G-|-----------------------------------------0---------------------------------
                        D-|---------------------------------------------------------------------------
                        A-|-/----/----/-4--/--/-/--8-/-----/--/---12-/--/---------/---16--------------
                        Xang nhịp 25-28
                        D-|----------8-8-7-5-5-7-8-7-5-5-5--0-5----2-0-5-2-0--------------------------
                        A-|-6n----5-5-----------------6-5--3~-----2---------2-3~----------------------
                        D-|--------0----------------------0----5-5------------------------------------
                        G-|-------------------------------------0-------------------------------------
                        D-|---------------------------------------------------------------------------
                        A-|-/-/----/4/-----/-----/----8-/-/-/-12-/-/-----/----16----------------------
                        Cống nhịp 29-32
                        D-|---------------------0-5-2-------------0--5--------------------------------
                        A-|-3~-3~3~2---3n--------2---5-2-5-3~--2h3-----6n-----------------------------
                        D-|---------5-5--0------------------5-5----5----------------------------------
                        G-|----------0--5~0-3----------------0----------------------------------------
                        D-|------------------1p0------------------------------------------------------
                        A-|-/-/--/--4-/-/-/--8---/--/--/---12-/--/-/---16-----------------------------
                        Câu 2: Xề, Xang, Xang, Hò, Hò, Cống(Xê), Xê, Xang

                        Xê nhịp 1-4
                        D-|-----------8----10-12-8-12-10-10-8-0-5-0-3-5-7-5--5-0----------------------
                        A-|-6n----5-5--------------------------------------6--6-3~2-------------------
                        D-|--------0-----------------------------------------------0------------------
                        G-|---------------------------------------------------------------------------
                        D-|---------------------------------------------------------------------------
                        A-|-/-/----/4-/-/------/----8-----/---/---/------12-/-/-/--16-----------------
                        Xang nhịp 5-8
                        D-|-------0--------------0-0-5-2-----------2-0-5-2-0--------------------------
                        A-|------1--------3n------------5-2-5-3~--2---------2-3~----------------------
                        D-|-----3--0-0-3-5--0---5--------------5-5------------------------------------
                        G-|-3--------------5~3-3----------------0-------------------------------------
                        D-|---------------------------------------------------------------------------
                        A-|-/-/--/-4-----/-/-/--8/-----/--/---12-/-/-----/----16----------------------
                        Xang nhịp 9-12
                        D-|-1-3-1-0-------------------------------------------------------------------
                        A-|--------1-3-1-0--------------------------6-5-------------------------------
                        D-|---------------1-3-1-0--0-5--0-5-5-8-7-5--8-5-1-3-1-0-5--5-----------------
                        G-|-----------------------5~3--3-7---------8------------3--3--5~--------------
                        D-|---------------------------5---------------------------5--5----------------
                        A-|-/------/------/-------4-/-/-/-8-----/---/-/-12------/-/-/-16--------------
                        Hò nhịp 13-16
                        D-|------------5-50-8-5--------------------0----------------------------------
                        A-|---------5-8--------6n5-----5----------6-3~--------------------------------
                        D-|----0-5-8-------8------8-5-8------8-5-8----5-------------------------------
                        G-|-5~3-7-----------------------7---------------------------------------------
                        D-|---------------------------------------------------------------------------
                        A-|-/--/-/--4--/--/-/--8-/--/--/--12---/--/-/-16------------------------------
                        Hò nhịp 17-20
                        D-|-----------0-0-1-0-0-------------------------------------------------------
                        A-|------------3~----3~---1-1-------------------------------------------------
                        D-|-5-----5--5---------1p0---1-0----------0-0-3---5---------------------------
                        G-|---------0--------------3----5~3---0-3------5~3----------------------------
                        D-|--------------------------------0-3------------------------------------------
                        A-|-/-/-----/4-/--/--/-8---/-/--/-12--/---/----/--16--------------------------
                        Cống (xê) nhịp 21-24
                        D-|--------5---8-8-7-5------------------------------5-------------------------
                        A-|-----8-8-----------8-7-5------------3n----------5-6n(SL chánh)-------------
                        D-|---------8-5-------------8-5-0-0-3-5--0-5--0-5-8---------------------------
                        G-|-------------------------------------5~3--3-7------------------------------
                        D-|-----------------------------------------5---------------------------------
                        A-|-/-----/-/--4-----/--/---/---8-----/-/-/12-/-/--/-16-----------------------
                        Xê nhịp 24-28
                        D-|---------------8-8-8-8---8-------5-5-7-8-8-5----5--------------------------
                        A-|-6n----5-5----------------8-8-5-8--------------6-5-------------------------
                        D-|--------0-------------8-8---------------8---5-8----------------------------
                        G-|---------------------------------------------------------------------------
                        D-|---------------------------------------------------------------------------
                        A-|-/-/----/4-/-------/--/--8/---/--/----12-/--/--/-16------------------------
                        Xang nhịp 29-32
                        D-|-------------------------0-0-5-2--------------2-0-5-2-0--------------------
                        A-|------5-----------3--------------5-2-5-3~----2---------2-3~----------------
                        D-|-8-----8-5-0-0-3-5--0---5----------------5--5------------------------------
                        G-|-------------------5~3-3-------------------0-------------------------------
                        D-|---------------------------------------------------------------------------
                        A-|-/--/--/---4-----/-/-/--8/-----/---/----12--/-/-----/----16----------------

                        Câu 3: Xang (láy 8 nhịp), Xang, Xê, Xê, Công, xê, Hò

                        Xang nhịp 1-8 (láy đờn 8 nhịp)
                        D-|--------------------0-10-8-------------------------------------------------
                        A-|-3~--3~3~3~3~3~-----------10-8~--8-8~--8-----------------------------------
                        D-|----------------------------------8-----8----------------------------------
                        G-|---------------------------------------------------------------------------
                        D-|---------------------------------------------------------------------------
                        A-|-/-/---/-4-/-/--/-8---/----/-/12--//-/-16----------------------------------

                        D-|-8---8------------------------------------8^5-5---0-5-2-0------------------
                        A-|8-----10->13-13~13-10->13~10--8-5-8~--5-8----------------2-3~--------------
                        D-|-----------------------------------5-8-------------------------------------
                        G-|---------------------------------------------------------------------------
                        D-|---------------------------------------------------------------------------
                        A-|-/-/--/-------4/----/-----/-8---/--/--/--12---/-/-----/----16--------------
                        Xang nhịp 9-12
                        D-|----------0---8-5-5-5-8-5--0-0-5-2-----------2-0-5-2-0---------------------
                        A-|-3n-3~-----------8~------6n-------5-2-5-3~--2---------2-3~-----------------
                        D-|-----------8-8-------8-------------------5-5-------------------------------
                        G-|------------------------------------------0--------------------------------
                        D-|---------------------------------------------------------------------------
                        A-|-/--/------/--4--/--/-/--8-/-----/--/---12-/-/-----/----16-----------------
                        Xê nhịp 13-16
                        D-|-------------------------------0-5-2--------------0-5----------------------
                        A-|-3n-3n3n2-----------------------2---5-2-5-3~--2h3--6-6-5-------------------
                        D-|---------5->8-8-8-8-8-0-0-3---5------------5-5---------SL giã--------------
                        G-|---------------------------5~3--------------0------------------------------
                        D-|---------------------------------------------------------------------------
                        A-|-/-/--/--4--------/---/----/--8-/--/--/---12-/--/--/---16------------------
                        Xê nhịp 17-20
                        D-|------------------8-10~12-8--------------8-0-7-5---------------------------
                        A-|-6n--5-5---8-10~12---------12-10-8~--------------8-7-5----5----------------
                        D-|------0---------------------------12-10-8-------------5-8------------------
                        G-|---------------------------------------------------------------------------
                        D-|---------------------------------------------------------------------------
                        A-|-/-/--/4-/----/---/-----8--/-----/---/--12-----/---/--/---16---------------
                        Cống nhịp 21-24
                        D-|------------------------0-0-5-2---------------0-5--------------------------
                        A-|-----5-----------3-------------5-2-5-3~---2h3----6n------------------------
                        D-|-8----8-5-0-0-3-5--0---5---------------5-5-----5---------------------------
                        G-|------------------5~3-3-----------------0----------------------------------
                        D-|---------------------------------------------------------------------------
                        A-|-/-/--/---4-----/-/-/--8/-----/--/----12-/--/--/-16------------------------
                        Xê nhịp 25-28
                        D-|---------17-17-17-17-----17-14-17-14-12--12--------------------------------
                        A-|-6n-5-5--------------------------------14----10-10-10-12-13-10-13-12-10----
                        D-|-----0--------------17-17----------------------------------------------13-12
                        G-|---------------------------------------------------------------------------
                        D-|---------------------------------------------------------------------------
                        A-|-/-/-/4-/------/-----/---8---------/---/--/12-------/-----/--------/-------16
                        Hò nhịp 29-32
                        D-|----------8-10~12-8-12-10n10~8-0-5-0-3-5-7-5-8-5----------0-5--------------
                        A-|---8-10~12--------------------------------------6-5------5---2-5-3~--------
                        D-|--------------------------------------------8---------8-8----------5-------
                        G-|-------------------------------------------------------7-------------------
                        D-|---------------------------------------------------------------------------
                        A-|-/---/----/----4----/------/---/---8-------/-/--/--12--/-/---/-----16------

                        Câu 4: Hò, Xề, Xề, Xê, Xang, Cống, Xê, Hò
                        Hò nhịp 1-4
                        D-|---------------------------------------------------------------------------
                        A-|-------3~-----------------5-3~2--------------------------------------------
                        D-|-5--5-5-5-3~0-0-3-0-3-5->7-0---5-3-----0-0-3---5---------------------------
                        G-|-----0----------------------------5~3-3-----5~3----------------------------
                        D-|-------------------------------------5-------------------------------------
                        A-|-/-/-/4-/---/-----/---8---/-/--/-12--/-/----/--16--------------------------
                        Xề nhịp 5-8
                        D-|------------8-8-8-8^7-8-7-5-5-----------------2----------------------------
                        A-|---------------------------6-6-5-----2-5-3~2-2-5-3~2-----------------------
                        D-|-5-----5---------8------------------0-------5-------0----------------------
                        G-|--------0------------------------------------------------------------------
                        D-|---------------------------------------------------------------------------
                        A-|-/-/----/-4-/----/--/------8-/----/--/--12--/-/--/--16---------------------
                        Xề nhịp 9-12
                        D-|---------------------------------------------------------------------------
                        A-|--------------5-------------5-----------3~---------------------------------
                        D-|-0-0-0-3-5-7-8-8-8-7-5-5-7-8-8-----5-3-5--5-5-5-5-5---0-0-3----------------
                        G-|-----------------------------------------------------3-----5~3-------------
                        D-|----------------------------------------------------5---------0------------
                        A-|-----/---/---/-4-----/-----/-/--8----/--/-/----12---/-/----/--16-----------
                        Xê nhịp 13-16(SL giã)
                        D-|----------------------------------------------------0--5-------------------
                        A-|---------------------------------6-5-------2h3--------6-6-5----------------
                        D-|------0-----------5---0-5-8-7-5---8-5-----5---------------SL giã-----------
                        G-|-2-----2-3-2-0-0-3-5n5~7--------8--------0---------------------------------
                        D-|--------------3-5----------------------------------------------------------
                        A-|-/-/---/------4-/-/--/-8----/----/-/-12---/--/--------/---16---------------
                        Xang nhịp 17-20
                        D-|----------------------5-5-7-8-8-8-5---5-8-7-5---0-5---------2-5------------
                        A-|-6n----5-5-----5-8-5-8-------------8~8~------6-5---2-5-3~2-5----3~---------
                        D-|--------0--------------------8------8-------------------5------2-----------
                        G-|---------------------------------------------------------------------------
                        D-|---------------------------------------------------------------------------
                        A-|-/-/----/4-----/------/-----/-8----/-/----/---12---/----/---/---16---------
                        Cống nhịp 21-24 (SL chánh)
                        D-|-----------------------0-5-2--------------0-5-------------------------------
                        A-|-3n--3n3n2----3---------2---5-2-5-3---2h3----6n-----------------------------
                        D-|----------5-5---0------------------5-5-----5--------------------------------
                        G-|-----------0---5~0-3----------------0---------------------------------------
                        D-|--------------------1p0----------------------------------------------------
                        A-|-/-/---/--4-/--/-/--8---/--/--/---12-/--/--/-16-----------------------------
                        Xê nhịp 25-28
                        D-|----------------8-------8-10-12-10-8------------------8^---5---------------
                        A-|-6n--5-5---8-8-8-8-10~12------------12-10n10-8-------8----6-5--------------
                        D-|------0---------------------------------------10->12---8-5-----------------
                        G-|---------------------------------------------------------------------------
                        D-|---------------------------------------------------------------------------
                        A-|-/-/--/4-/-----/-/-----8---/---------/-----/--12------/-/-/-16-------------
                        Hò nhịp 29-32 (check)
                        D-|----------------------5-5-8-5--------------------0-------------------------
                        A-|-------------------5-8~------6n5-----5----------6-3~-----------------------
                        D-|----------0-----5-8------8------8-5-8------8-5-8----5----------------------
                        G-|----0h3-7---7-------------------------7------------------------------------
                        D-|---------------------------------------------------------------------------
                        A-|-/----/---/-----4--/--/---/--8-/--/--/-12----/--/-/-16---------------------

                        Câu 5: Hò (láy 8 nhịp), hò, hò, hò, xê, xê, xề

                        Hò (láy 8 nhịp)
                        D-|----------------------------------------------5-8-7-5---------8^5-5--------
                        A-|-------10-10-10-8---10-8-------------------5-8-------8~----8-5-------------
                        D-|-----5-------------8----10-vuot-12-10-----8---------------5----------------
                        G-|------0----------10--------------------------------------------------------
                        D-|---------------------------------------------------------------------------
                        A-|-/----/-------/---4--/---/----------/--8---/--/------/12---/--/---/-16-----

                        D-|-8-8-8-10~8-10^12-----10-10-10-8-----------------------8-7-8-7-5------5----
                        A-|--------------------------------10-8-----------8~----8----------8-5----3~--
                        D-|------------------------------------10->12----8-------8------------------5-
                        G-|---------------------------------------------------------------------------
                        D-|---------------------------------------------------------------------------
                        A-|-----/----/----/---4---------/---/---/----8----/-/----/-12------/---/--/-16
                        Hò nhịp 9-12
                        D-|------8-8-7-5--------------------------------------------------------------
                        A-|-------------8-7-5---------------------------5-----------------------------
                        D-|-----8------------8-7-5-----------------0-5-8-8-----0------5---------------
                        G-|-----------------------8-7-5~--------0-3-7-----------5~->3-----------------
                        D-|----------------------------0-0-3-0-3--------------------------------------
                        A-|--/---/-----/--4--/---/--/--8-----/--/--/12--/---/---/-----16--------------
                        Hò nhịp 13-16
                        D-|-----------0-5-0-----------------------------------------------------------
                        A-|----------2---3~-3~------0-5-----------------------------------------------
                        D-|-5-----5-5------5-0-0-3-5-8--5-8-8-0-0-3---5-------------------------------
                        G-|--------0-------------------8-7---------5~3--------------------------------
                        D-|--------------------------------8------------------------------------------
                        A-|-/--/---/4-/--/-/-8-----/-/-/12-/--/----/--16------------------------------
                        Hò nhịp 17-20
                        D-|----------0-5-2----------------------0-5^-------0-5------------------------
                        A-|-----------2---5-2-5-3~-------------5---3~-----2---3~----------------------
                        D-|-5-----5-5-------------0-0-3-5-0-5-8-----0-----------5---------------------
                        G-|--------0------------------------------------------------------------------
                        D-|-------------------------------------------0-------------------------------
                        A-|-/--/---/4-/--/--/-----8-----/---/--/-12-/---/--/----16--------------------
                        Xê nhịp 21-24 (SL chánh)
                        D-|-0---5-7-8-8-8-5-----8-5-5---------0-8^5----------0-5----------------------
                        A-|--5-8-----------8-8-5------8-------------------2h3-6-6-5-------------------
                        D-|----------8------5-----------10->12-8---8-5---5----------------------------
                        G-|---------------------------------------------0-----------------------------
                        D-|---------------------------------------------------------------------------
                        A-|--/------/-/----4-/--/---/----8-----/--/--/12-/--/-/---16------------------
                        Xê nhịp 25-28
                        D-|--------8-8--8-8-7-8-7-5-5-8---8-5-5--8-7-5-0-5----------0-5---------------
                        A-|-6n--5-5----------------8~--5-8------------6---2-5-3~3->5---6-5------------
                        D-|------0-------8----------------------8--------------5----------------------
                        G-|---------------------------------------------------------------------------
                        D-|---------------------------------------------------------------------------
                        A-|-/-/--/4/-----/--/------8---/------/--/---12---/----/----/----16-----------
                        Xề nhịp 29-32
                        D-|--------------8-10-12-8-------------0-8-5-0-----0--------------------------
                        A-|----------8-10---------10n10-8-----------6-3~0-1-3n-3~-2-------------------
                        D-|-8----8-12--------------------10->12-8-5----5-----------0------------------
                        G-|---------------------------------------------------------------------------
                        D-|---------------------------------------------------------------------------
                        A-|-/-/----/----4--/-----/----/--8------/-/-/12-/--/---/---16-----------------

                        Câu 6: Xề, Xê, Xang, Cống, Xê, Xề, Hò
                        Xề nhịp 1-4
                        D-|---------------------------------------------------------------------------
                        A-|---------------------------------------------------------------------------
                        D-|-3->5-5->3-0-------------------------------1--1-0-3-2-0----0---------------
                        G-|----------------3-3-3-3----3-0-3-2-0--0-2-3-------------5~3-3--------------
                        D-|------------------------3-3---------3~------1--1-------------0-------------
                        A-|--/----/----/-4-----/---/--/-8------/---/--/-12-/-------/--/-16------------
                        Xê nhịp 5-8
                        D-|---------------------------0-0-5-2--------------0-5------------------------
                        A-|-------------------------6--------5-2-5-3~--2h3--6-6-5---------------------
                        D-|-------------5-0-5-8-7-5--8--------------5-5-------------------------------
                        G-|-0-3-2-0--0-3-5~7-------8-----------------0--------------------------------
                        D-|--------3~-5---------------------------------------------------------------
                        A-|-/------/--/-4-/-/------/-8/-----/--/---12-/--/--/---16--------------------
                        Xang Nhịp 9-12
                        D-|--------------------8--10-8------0-8----2-0-5-2-0--------------------------
                        A-|-6n----5-5-------5-8-------10-8--------2---------2-3~----------------------
                        D-|--------0-8-----8--------------10~8-5-5------------------------------------
                        G-|-------------------------------------0-------------------------------------
                        D-|---------------------------------------------------------------------------
                        A-|-/-/----/4/--/---/--8---/-------/-/12-/-/-----/----16----------------------
                        Cống nhịp 13-16 (SL giã)
                        D-|--------------------------------0-5-2-------------0-5----------------------
                        A-|-3~--3n3~2-----------------------2---5-2-5-3~--2h3---6n--------------------
                        D-|----------5->8-8-8-8-8-0-0-3---5------------5-5----5-----------------------
                        G-|----------------------------5~3--------------0-------SL gia----------------
                        D-|---------------------------------------------------------------------------
                        A-|-/-/---/--4--------/---/----/--8-/--/--/---12-/--/-/-16--------------------
                        Xê nhịp 17-20
                        D-|--------------8-7-8-7-5-5-7-8-5-8-5--------0-5----0-5----------------------
                        A-|-6n----5-5-------------8~----------6-5-6------2-3~---6-5-------------------
                        D-|--------0----------------------8--------5-5--------------------------------
                        G-|-----------------------------------------0---------------------------------
                        D-|---------------------------------------------------------------------------
                        A-|-/--/---/4--/---/------/--8---/-/--/---12-/---/---/----16------------------
                        Xề nhịp 21-24
                        D-|---------------8-10~12-8-----------------0-8-5-0-----0---------------------
                        A-|-----------8-10---------10n10~8---------------6-3~0-1-3n-----3~2-----------
                        D-|-8-----8-12--------------------10->12-----8-5----5---------------0---------
                        G-|-----------------------------------------------------------------SL chánh--
                        D-|---------------------------------------------------------------------------
                        A-|-/-/------/---/---/----/----/---/---------/-/-/-/-/--/-------/---/---------
                        Hò nhịp 25-32
                        D-|---------------------------------------------------------------------------
                        A-|------------5-------------5-3~---------------------------------------------
                        D-|-0-0-0-5-7-8-8-0-0-0-0-5-3----5-5-3---------5----3-5-1n(nhịp-28)-----------
                        G-|-----------------------------------5->7-3----------------------------------
                        D-|---------------------------------------------------------------------------
                        A-|-----/---/--/--4-----/---/--/-8-/--/----/12-/-/----/-16--------------------

                        D-|---------------------------------------------------------------------------
                        A-|------1n--0-------------------------------5--------------------------------
                        D-|---0-0-----1-0-1-1-3-1-0-------------0-5-8-8-0--------5--------------------
                        G-|----3---------3---------5~3-0-3-5->7----------5~->3------------------------
                        D-|---------------------------------------------------------------------------
                        A-|-/--/-/-4--/--//-----8--/---/---/---12---/-/--/-------16-------------------
                        <bài viết được chỉnh sửa lúc 10.11.2006 00:18:36 bởi GuitarVongCo >
                         
                        #42
                          GuitarVongCo

                          • Số bài : 96
                          • Điểm thưởng : 0
                          • Từ: 06.01.2006
                          • Trạng thái: offline
                          Ngựa Ô Nam - Dây Đào 15.09.2006 11:22:16 (permalink)
                          Ngựa Ô Nam - Dây Đào 7 câu - Nhịp 4 = 16 nhịp con

                          Đây là bài của NS Văn Vỉ - NS Văn Vỉ muốn phổ biến những bài bản cho chúng ta để cùng nhau học hỏi và được lưu truyền mãi mãi.




                          Câu 1
                          D-|------------------------0-4->7-9-7-777-7-7-9-7----0-3------0---------------
                          A-|-----------------------------xê---------------9------0-3n-3--5-liu---------
                          D-|--(...)----------------------------------------7---3-----------------------
                          G-|---------------------------------------------xê----------------------------
                          D-|---------------------------------------------------------------------------
                          A-|--/-/-/-4-----/----/------/------8---/---/---/12---/-/----/--16------------
                          Câu 2
                          D-|-0-0-3-----0-----0-0-4-5-7-9-7-777-7-7-9-7----0-3------0-------------------
                          A-|------0-0-3-5---5-----------xê------------9------0-3n-3-5------------------
                          D-|-------3---liu-0---------------------------7---3-------liu-----------------
                          G-|------------------------------------------xề-------------------------------
                          D-|---------------------------------------------------------------------------
                          A-|-/----/-/---4--/-/-----/-----8---/---/---/12---/-/----/16------------------
                          Câu 3
                          D-|-0-3-2-3-2-0-0-7--------0--------0--10-12--12-9--------7-5~4---------------
                          A-|------------3~5-0----0-3-5-5------12------------12--9-9-0---5->8-----------
                          D-|---------------xề---3------liu-----------12----xê----7---------xự----------
                          G-|---------------------------------------------------------------------------
                          D-|---------------------------------------------------------------------------
                          A-|-----/------/-/-4----/---/-/-8-----/----/---/--12----/-/-/-16--------------
                          Câu 4
                          D-|-------0-4->7---7-9-7----7-5~4---0-3-2-3-2-0-0-7--------0------------------
                          A-|888-8n8------------xê-9-9-0---5-------------3-5-0----0-3-5-5---------------
                          D-|-----------------------7-----liu---------------xê--3-------liu-------------
                          G-|---------------------------------------------------------------------------
                          D-|---------------------------------------------------------------------------
                          A-|--/---/--/----------4--/-/-/--8------/------/-/12----/---/-/-16------------
                          Câu 5
                          D-|-0-0-12-9-------------0---9-9-10-12-------0-0-12-9-------------9-----------
                          A-|---------12-9-12-10~-----9---------9-10~10~-------12-9-12-10~-9--10~10-----
                          D-|-------------------12--12----------xang---------------------12--9---xang---
                          G-|------------------liu--------------------------------------liu-------------
                          D-|---------------------------------------------------------------------------
                          A-|-/------/---/------4----/-/------/----8---/------/---/-----12--/--/--/-16--
                          Câu 6
                          D-|-0-000-0-4-5-7-9-7-----7-5~4--0-3-2-3-2-0-0-7-------0----------------------
                          A-|----------------xê--9-9-0---5------------3-5-0---0-3-5-5-------------------
                          D-|---------------------7-----liu--------------xê--3------liu-----------------
                          G-|---------------------------------------------------------------------------
                          D-|---------------------------------------------------------------------------
                          A-|-/---/-----/-----4---/-/-/--8-----/------/-/-12--/---/-/-16----------------
                          Câu 7
                          D-|---0-5h7-5~0--------------0-3--------0-3-0---------0-----------------------
                          A-|--5---------5-3------------5-0h3-3~---5---3~0---0-3-5-5--------------------
                          D-|-0-------------5~-555-5n-5------phạn-------xê--3------liu------------------
                          G-|-------------xang----------------------------------------------------------
                          D-|---------------------------------------------------------------------------
                          A-|-/-/-----/-----4----/----/-/-8--------/--/-12---/---/-/-16-----------------
                          <bài viết được chỉnh sửa lúc 15.09.2006 23:42:30 bởi GuitarVongCo >
                           
                          #43
                            GuitarVongCo

                            • Số bài : 96
                            • Điểm thưởng : 0
                            • Từ: 06.01.2006
                            • Trạng thái: offline
                            Tử Qui Từ - Dây Đào 17.09.2006 03:33:10 (permalink)
                            Tử Qui Từ - Dây Đào 8 Câu nhịp 1 = 4 nhịp con

                            Đây là bài của NS Văn Vỉ - NS Văn Vỉ muốn phổ biến những bài bản cho chúng ta để cùng nhau học hỏi và được lưu truyền mãi mãi.



                            Câu 1
                            D-|------2-2-2-5-2------------------------------------------------------------
                            A-|---------------------------------------------------------------------------
                            D-|---------------------------------------------------------------------------
                            G-|---------------------------------------------------------------------------
                            D-|---------------------------------------------------------------------------
                            A-|-/----/---/---/------------------------------------------------------------
                            Câu 2
                            D-|-0----2-2-2-2-5-2----------------------------------------------------------
                            A-|--2-5----------------------------------------------------------------------
                            D-|---------------------------------------------------------------------------
                            G-|---------------------------------------------------------------------------
                            D-|---------------------------------------------------------------------------
                            A-|----/---/---/---/----------------------------------------------------------
                            Câu 3
                            D-|-5-2-0-0-------------------------------------------------------------------
                            A-|------2-2--2-5-2-0---------------------------------------------------------
                            D-|------------------5--------------------------------------------------------
                            G-|---------------------------------------------------------------------------
                            D-|---------------------------------------------------------------------------
                            A-|------/--/-/------/--------------------------------------------------------
                            Câu 4
                            D-|---------------------------------------------------------------------------
                            A-|--2-----0-2---2------------------------------------------------------------
                            D-|-2-5-2-5-----2-------------------------------------------------------------
                            G-|---------------------------------------------------------------------------
                            D-|---------------------------------------------------------------------------
                            A-|---/------/-/-/------------------------------------------------------------
                            Cau 5
                            D-|---------------------------------------------------------------------------
                            A-|-222-2-2----2-2------------------------------------------------------------
                            D-|-----------2-2---2---------------------------------------------------------
                            G-|---------------------------------------------------------------------------
                            D-|---------------------------------------------------------------------------
                            A-|-------/----/-/--/---------------------------------------------------------
                            Câu 6
                            D-|---------------------------------------------------------------------------
                            A-|-2-0---2-0-2-0--0-2--------------------------------------------------------
                            D-|----5-----2---5------------------------------------------------------------
                            G-|---------------------------------------------------------------------------
                            D-|---------------------------------------------------------------------------
                            A-|----/-----/---/---/--------------------------------------------------------
                            Câu 7
                            D-|--------------------------0-5-4-0------------------------------------------
                            A-|----5----------------------------------------------------------------------
                            D-|-----2---2-5-4-2--222-2-2--------------------------------------------------
                            G-|---------------------------------------------------------------------------
                            D-|---------------------------------------------------------------------------
                            A-|------/--------/--------/-------/------------------------------------------
                            Câu 8
                            D-|--000-0-0-0-5-4-2---222-2-2-0-0-2------------------------------------------
                            A-|-----------------------------2---------------------------------------------
                            D-|---------------------------------------------------------------------------
                            G-|---------------------------------------------------------------------------
                            D-|---------------------------------------------------------------------------
                            A-|--------/-------/---------/-----/------------------------------------------
                             
                            #44
                              GuitarVongCo

                              • Số bài : 96
                              • Điểm thưởng : 0
                              • Từ: 06.01.2006
                              • Trạng thái: offline
                              Khúc Ca Hoa Chúc - Dây Đào 17.09.2006 04:52:06 (permalink)
                              Khúc Ca Hoa Chúc - Dây Đào 13 câu - nhịp 1 = 4 nhịp con

                              Đây là bài của NS Văn Vỉ - NS Văn Vỉ muốn phổ biến những bài bản cho chúng ta để cùng nhau học hỏi và được lưu truyền mãi mãi.



                              Câu 1
                              D-|-----2-2-5-2---------------------------------------------------------------
                              A-|---------------------------------------------------------------------------
                              D-|---------------------------------------------------------------------------
                              G-|---------------------------------------------------------------------------
                              D-|---------------------------------------------------------------------------
                              A-|-/-/-/-----/---------------------------------------------------------------
                              Câu 2
                              D-|-------2-5-0-2-4-2---------------------------------------------------------
                              A-|--5-2-5--------------------------------------------------------------------
                              D-|---------------------------------------------------------------------------
                              G-|---------------------------------------------------------------------------
                              D-|---------------------------------------------------------------------------
                              A-|----/--/---/-----/---------------------------------------------------------
                              Câu 3
                              D-|---222-5-2-0---------------------------------------------------------------
                              A-|------------2--------------------------------------------------------------
                              D-|---------------------------------------------------------------------------
                              G-|---------------------------------------------------------------------------
                              D-|---------------------------------------------------------------------------
                              A-|-/---/---/--/--------------------------------------------------------------
                              Câu 4
                              D-|-0-2-0-2-5-0--0-2-5-0------------------------------------------------------
                              A-|-------------2-------------------------------------------------------------
                              D-|------------5--------------------------------------------------------------
                              G-|---------------------------------------------------------------------------
                              D-|---------------------------------------------------------------------------
                              A-|---/-------/-/------/------------------------------------------------------
                              Câu 5
                              D-|-------0-------------------------------------------------------------------
                              A-|----0-2-0------------------------------------------------------------------
                              D-|---5-----------------------------------------------------------------------
                              G-|---------------------------------------------------------------------------
                              D-|---------------------------------------------------------------------------
                              A-|-/-/--/-/------------------------------------------------------------------
                              Câu 6
                              D-|-----0---------------------------------------------------------------------
                              A-|--0-2----------------------------------------------------------------------
                              D-|-5----2--------------------------------------------------------------------
                              G-|---------------------------------------------------------------------------
                              D-|---------------------------------------------------------------------------
                              A-|//--/-/--------------------------------------------------------------------
                              Câu 7
                              D-|---------------------------------------------------------------------------
                              A-|-----------------0---------------------------------------------------------
                              D-|--------0-2-0-2-5----------------------------------------------------------
                              G-|---------------------------------------------------------------------------
                              D-|---------------------------------------------------------------------------
                              A-|------/---/---/--/---------------------------------------------------------
                              Câu 8
                              D-|---------------------------------------------------------------------------
                              A-|-2-0-2-0-------------------------------------------------------------------
                              D-|----5---7-7-7--------------------------------------------------------------
                              G-|---------------------------------------------------------------------------
                              D-|---------------------------------------------------------------------------
                              A-|----/--/-/--/--------------------------------------------------------------
                              Câu 9
                              D-|----0-2-5-2-0--------------------------------------------------------------
                              A-|-2-2---------2-------------------------------------------------------------
                              D-|---------------------------------------------------------------------------
                              G-|---------------------------------------------------------------------------
                              D-|---------------------------------------------------------------------------
                              A-|/--/--/------/-------------------------------------------------------------
                              Câu 10
                              D-|----0-2-5-2-0--------------------------------------------------------------
                              A-|-2-2---------2-------------------------------------------------------------
                              D-|---------------------------------------------------------------------------
                              G-|---------------------------------------------------------------------------
                              D-|---------------------------------------------------------------------------
                              A-|/--/--/------/-------------------------------------------------------------
                              Câu 11
                              D-|---------------------------------------------------------------------------
                              A-|-0-0-2-0-------------------------------------------------------------------
                              D-|--------5-2----------------------------------------------------------------
                              G-|---------------------------------------------------------------------------
                              D-|---------------------------------------------------------------------------
                              A-|/--/---/--/----------------------------------------------------------------
                              Câu 12
                              D-|---------------------------------------------------------------------------
                              A-|------0-2-0-2-0------------------------------------------------------------
                              D-|-0-2-5-----5---------------------------------------------------------------
                              G-|---------------------------------------------------------------------------
                              D-|---------------------------------------------------------------------------
                              A-|---/--/----/--/------------------------------------------------------------
                              Câu 13
                              D-|-5-4-2-0-------------------------------------------------------------------
                              A-|--------4-3-2->5-----------------------------------------------------------
                              D-|---------------------------------------------------------------------------
                              G-|---------------------------------------------------------------------------
                              D-|---------------------------------------------------------------------------
                              A-|-/---/--/---/--------------------------------------------------------------
                               
                              #45
                                Online Bookmarks Sharing: Share/Bookmark
                                Thay đổi trang: < 123456789 > | Trang 3 của 9 trang, bài viết từ 31 đến 45 trên tổng số 123 bài trong đề mục

                                Chuyển nhanh đến:

                                Thống kê hiện tại

                                Hiện đang có 0 thành viên và 1 bạn đọc.

                                Chú Giải và Quyền Lợi

                                • Bài Mới Đăng
                                • Không Có Bài Mới
                                • Bài Nổi Bật (có bài mới)
                                • Bài Nổi Bật (không bài mới)
                                • Khóa (có bài mới)
                                • Khóa (không có bài mới)
                                • Xem bài
                                • Đăng bài mới
                                • Trả lời bài
                                • Đăng bình chọn
                                • Bình Chọn
                                • Đánh giá các bài
                                • Có thể tự xóa bài
                                • Có thể tự xóa chủ đề
                                • Đánh giá bài viết

                                2000-2022 ASPPlayground.NET Forum Version 3.9