Tự Học Đàn Cải Lương Guitar - Vài Điễm Căn Bản & Và một Số Bài Bản Đàn (Có mp3)

Thay đổi trang: < 123456789 > | Trang 4 của 9 trang, bài viết từ 46 đến 60 trên tổng số 123 bài trong đề mục
Tác giả Bài
GuitarVongCo

  • Số bài : 96
  • Điểm thưởng : 0
  • Từ: 06.01.2006
  • Trạng thái: offline
Ánh Nắng - Dây Đào 18.09.2006 11:40:34 (permalink)
Ánh Nắng - Dây Đào 16 câu - nhịp 1 = 4 nhịp con

Đây là bài của NS Văn Vỉ - NS Văn Vỉ muốn phổ biến những bài bản cho chúng ta để cùng nhau học hỏi và được lưu truyền mãi mãi.



Câu 1
D-|------5-5------------------------------------------------------------------
A-|---------5-5---------------------------------------------------------------
D-|-----------liu-------------------------------------------------------------
G-|---------------------------------------------------------------------------
D-|---------------------------------------------------------------------------
A-|-/-/----/--/---------------------------------------------------------------
Câu 2
D-|------2--------------------------------------------------------------------
A-|-2-2-2-2-5-----------------------------------------------------------------
D-|---------liu---------------------------------------------------------------
G-|---------------------------------------------------------------------------
D-|---------------------------------------------------------------------------
A-|-/-/--/--/-----------------------------------------------------------------
Câu 3
D-|------2--------------------------------------------------------------------
A-|-2-2-2-2-5-----------------------------------------------------------------
D-|---------liu---------------------------------------------------------------
G-|---------------------------------------------------------------------------
D-|---------------------------------------------------------------------------
A-|/--/--/--/-----------------------------------------------------------------
Câu 4
D-|--2-----2------------------------------------------------------------------
A-|-2-2-5-2-2-5---------------------------------------------------------------
D-|-----------liu-------------------------------------------------------------
G-|---------------------------------------------------------------------------
D-|---------------------------------------------------------------------------
A-|--/--/--/--/---------------------------------------------------------------
Câu 5
D-|-0-----0-0-----------------------------------------------------------------
A-|--2-0-0-2-2-0--------------------------------------------------------------
D-|-----5-------5-------------------------------------------------------------
G-|-------------xàng----------------------------------------------------------
D-|---------------------------------------------------------------------------
A-|--/---/-/----/-------------------------------------------------------------
Câu 6
D-|---5-2-5-------------------------------------------------------------------
A-|--------2------------------------------------------------------------------
D-|--------cồng---------------------------------------------------------------
G-|---------------------------------------------------------------------------
D-|---------------------------------------------------------------------------
A-|-/-/---//------------------------------------------------------------------
Câu 7
D-|-0-2-0-2-------------------------------------------------------------------
A-|--2-----0------------------------------------------------------------------
D-|--------xề-----------------------------------------------------------------
G-|---------------------------------------------------------------------------
D-|---------------------------------------------------------------------------
A-|--//---//------------------------------------------------------------------
Câu 8
D-|---------------------------------------------------------------------------
A-|-2-0--2h5------------------------------------------------------------------
D-|--------cộng---------------------------------------------------------------
G-|---------------------------------------------------------------------------
D-|---------------------------------------------------------------------------
A-|---/-//--/-----------------------------------------------------------------
Câu 9
D-|-2-------------------------------------------------------------------------
A-|--5--5-2h5-----------------------------------------------------------------
D-|---------cộng--------------------------------------------------------------
G-|---------------------------------------------------------------------------
D-|---------------------------------------------------------------------------
A-|--/-/--/--/----------------------------------------------------------------
Câu 10
D-|-2------2------------------------------------------------------------------
A-|--5-2-5-ú------------------------------------------------------------------
D-|---------------------------------------------------------------------------
G-|---------------------------------------------------------------------------
D-|---------------------------------------------------------------------------
A-|--///---/------------------------------------------------------------------
Câu 11
D-|-5-0-----------------------------------------------------------------------
A-|----3-2-0-0-2--------------------------------------------------------------
D-|---------5---5-------------------------------------------------------------
G-|------------xàng-----------------------------------------------------------
D-|---------------------------------------------------------------------------
A-|---/--/---/--/-------------------------------------------------------------
Câu 12
D-|---0-2-5-------------------------------------------------------------------
A-|--------2-5----------------------------------------------------------------
D-|----------liu--------------------------------------------------------------
G-|---------------------------------------------------------------------------
D-|---------------------------------------------------------------------------
A-|-/---/--/-/----------------------------------------------------------------
Câu 13
D-|---2-5---------------------------------------------------------------------
A-|--5---2-5------------------------------------------------------------------
D-|--------liu----------------------------------------------------------------
G-|---------------------------------------------------------------------------
D-|---------------------------------------------------------------------------
A-|-/-/--/-/------------------------------------------------------------------
Câu 14
D-|---------5-----------------------------------------------------------------
A-|----0-2-5------------------------------------------------------------------
D-|-555-----xáng--------------------------------------------------------------
G-|---------------------------------------------------------------------------
D-|---------------------------------------------------------------------------
A-|---/--/--/--/--------------------------------------------------------------
Câu 15
D-|-5-------------------------------------------------------------------------
A-|----2-5--------------------------------------------------------------------
D-|------liu------------------------------------------------------------------
G-|---------------------------------------------------------------------------
D-|---------------------------------------------------------------------------
A-|-/-/--/--/-----------------------------------------------------------------
Câu 16
D-|---------------------------------------------------------------------------
A-|------0-2------------------------------------------------------------------
D-|-000-5---5-----------------------------------------------------------------
G-|---------xàng--------------------------------------------------------------
D-|---------------------------------------------------------------------------
A-|---/--/--/-/---------------------------------------------------------------
 
#46
    GuitarVongCo

    • Số bài : 96
    • Điểm thưởng : 0
    • Từ: 06.01.2006
    • Trạng thái: offline
    Văn Thiên Tường - Dây Đào 21.09.2006 00:57:16 (permalink)
    Văn Thiên Tường - Khúc Dựng & Xế Xãng - 1 câu có 8 nhịp = 32 nhịp con
    Với tiếng đàn của NS Văn Lắm

    Đây là 1 trong những bài oán phụ .



    Khúc Dựng (câu 7-12)

    Câu 7

    D-|---------------------------------------------------2-0---------------------
    A-|----(...)----(...)------(...)---------------------0---3~-------------------
    D-|---------------------------------------------------------------------------
    G-|---------------------------------------------------------------------------
    D-|---------------------------------------------------------------------------
    A-|/-/-/-4-/-/-/--8-/-/-/----12-----/----/------------/--16-------------------

    D-|-----0----0-7-5p3------5h7-5~----------0---------5-------------------------
    A-|-3n3~-0-3~-0-----5-5555-----8-0-------0--10-7-0-7-7-5-0h3~-----------------
    D-|--------------------------------0-3-5~--7----------------------------------
    G-|---------------------------------------------------------------------------
    D-|---------------------------------------------------------------------------
    A-|-/-/--/--20-/----/--/-24---/--/---/--28-/---/---/-----32-------------------

    Câu 8
    D-|-----0-3-0-0--------------------------7-5~----5-----------0-3-0-3---0------
    A-|-3n3~-------5-3-0-3-5~-7->12-12->7-7-0---7-0-7-7-5--0h3~-3~--0---0-3--5----
    D-|-----------------7---------------------------------------------3-----------
    G-|---------------------------------------------------------------------------
    D-|---------------------------------------------------------------------------
    A-|-/-/-----/------4-/----/------/----8--/--/---/------12---/---/---/----16---

    D-|--------3-0-3-0-7---------------5~8-7-0--70-3------------------------------
    A-|-5-5-555-0---0--10~-0-3-5---55-0-------58--5-5-3---------------------------
    D-|--0--------3---------------0--------------------5~-------------------------
    G-|---------------------------------------------------------------------------
    D-|---------------------------------------------------------------------------
    A-|-/-/---/20-/-/---/-----24--/-/--/--28--/-/-/----32-------------------------

    Câu 9

    Chú ý :
    Ở dây số 3 có khúc 7n(12)g(7) = đánh ngăn 7 dây 3, nhấn đến ngăn 12 rồi giãm
    xuống 7. Nếu quí vị không thích nhấn hoặc nhấn không lên tới thì có thể đánh
    ngăn 7 dây 3, rồi đến ngăn 5 dây 2, rồi ngăn 7 dây 3 cũng đuợc. Tương tự mấy
    câu khác, quí vị có thể áp dụng cách này.

    D-|------------------------------------------------------------0--------------
    A-|----------------0------------------------------------0---1-0-5-------------
    D-|-5~-5~0-0---5~-0-3-5-7n(12)g(7)-5~-5~-5->3-0h3n-0h3-0-0h3-----5~-----------
    G-|---------3-2---------------------------------------------------------------
    D-|-------------------------------7-------------------------------------------
    A-|-/--/----/--4----/---/---/--8---/--/--/----12--/----/----/---16------------

    D-|--0------------------------------------------------------------------------
    A-|-0-1-0----------------------------5--------------------0-------------------
    D-|------5~-3-5-7n(12)g(7)-5~-0h3n----3-5~7n(12)g(9)g(7)-3--5~5~--------------
    G-|--------7---------------------------------------------------10-7-----------
    D-|-----------------------------------------------------7--------7------------
    A-|-/----/--/--20------/------/---/24-/---/-----/--28---/-/---/---32----------

    Câu 10
    D-|--------------------------------7-------------0-3----3---0-----------------
    A-|---5-55-3-0-3-5-7->12-12->7-5~---7-0-7-5-3n~3~---0-5--0-3-5----------------
    D-|-----------7------------------7---------------------3----------------------
    G-|---------------------------------------------------------------------------
    D-|---------------------------------------------------------------------------
    A-|//--/-----4-/---/------/--8---/--/---/--12--/----/----/---16---------------

    D-|----5h7-5~-------0-----------------5~8-7-0---70----------------------------
    A-|-5-5------8-0---0-0-5------5-5-5--0-------5-8--5-3-------------------------
    D-|--0----------3-3-----5~-3-3---0-------------------5~-----------------------
    G-|---------------------------------------------------------------------------
    D-|---------------------------------------------------------------------------
    A-|-/-/----/--20--/--/--/-----24/-/---/--28--/--/-/--32-----------------------

    câu 11
    D-|---------------0-----------------------------------------------0-----------
    A-|--------------------0-00-0-0--5n-0-1-0-0-5-0-5--------------1-0-5----------
    D-|-5~-5~-0---5~-0-3-5~------------0-------------0h3n-0h3-0-0h3-----5~--------
    G-|--------3-2---------------------------2------------------------------------
    D-|---------------------------------------------------------------------------
    A-|---------------------------------------------------------------------------
    D-|-/--/---/--4----/---/--/---8----/----/-/------12--/----/----/----16--------

    D-|--0------------------------------------------------------------------------
    A-|-0-1-0------------------------------0------------------0-------------------
    D-|------5~----5-7n(12)g(7)-5~0h3n------3-5-7n(12)12g(7)-3--5~-5~-------------
    G-|--------7-10-------------------------------------------------10-7----------
    D-|-----------------------------------------------------7---------7-----------
    A-|-/----/----/--20-----/-----/---/-24--/---/----/---28-/-/----/---32---------

    Câu 12
    D-|----------------------------------------------------0-3-0-0---0------------
    A-|----0--------0--------------------------------------0--0---0-3-5-----------
    D-|---0--0--5~-0-3-5-7n(12)g(7)-3n(7)-3n(7)-5~---------0----3-----------------
    G-|-----3-2-----------------------------------10-----7------------------------
    D-|---------------------------------------------7h10--------------------------
    A-|-/---/---/----4---/---/-----8/-----/------/------12--/-/---/---16----------

    D-|-------12---------------0---------------0----------------------------------
    A-|-5-5--10n-10~8-0-0-0-3-0-3-5~7->12-12->7-5-3~0----0-3~5--------------------
    D-|--0-------------7------------------------------0---------------------------
    G-|---------------------------------------------------------------------------
    D-|---------------------------------------------------------------------------
    A-|-/-/-------/--20-/-----/-/--24-----/---/-/--28-/--/-/-32-------------------

    Khúc Xế Xãng (câu 13-15)

    Câu 13
    D-|---------------------------------------------------------------12-9--------
    A-|-----------------------------------------10~-12-12->17->12-12------12-9-10~
    D-|-----(...)---------(...)---------------12--------------------12------------
    G-|---------------------------------------------------------------------------
    D-|---------------------------------------------------------------------------
    A-|-/-/-/-4---/-/-/-----8--/--/--------------/-----12-------/----/---/-----16-

    D-|---------0-12-9--0---7-------------------------------------0---------------
    A-|-10n10n10~-----12-5-8-5n-5-3--------0-1-0-1-0-----------1-0-1-0------------
    D-|----------------------------5~-5~-5~---------3-0-0-3-0-3-------0-3-5~------
    G-|---------------------------------------------------------------------------
    D-|------------------------------------------------0--------------------------
    A-|--/-----/--/---20-/--/---/-24--/--/-----/-----28-/------/---/------32------

    Câu 14
    D-|----0-3-2-0------------------------0---------------0-0---------------------
    A-|-----------1-3-1-0--0-----------1-0-5---------------0-1-0-0----------------
    D-|---3--------------5~-0-3-0-3-0-3-----5~--------------------0-3-5-7->-------
    G-|---------------------------------------------------------------------------
    D-|---------------------------------------------------------------------------
    A-|-//-/------4------/------/------/----8--///12-------/-----/--/--16---------

    D-|---------------------------------0-0---------------------------------------
    A-|-------------0-3~-5----0-8-5--5---0-1-0-----------------0-0-0--------------
    D-|-12-12->7-7-0------5->7----------------7n~-5~-5~-0h3n-5------5~------------
    G-|-----------------------------7---------------------------------10-7--------
    D-|---------------------------------------------------------7-----------------
    A-|-----/----/--/---20----/---/--/24-/-----/-/-28---/------/-/-------32-------

    Câu 15
    D-|--------------------------------------------0------------------------------
    A-|-------0-------0---0-0-0-0--0------------1-0-0-------------1-0-------------
    D-|-0-0--0--0-5~-0-3-5----------5~-0-3-0-0h3-----5~-5~-3-0-0-3----5~----------
    G-|--------3-2---------2-----------------------------------------2------------
    D-|--0------------------------------------------------------------------------
    A-|-/-/----/--4----/--/-/---8---/------/----/----12-/----/----/---16----------

    D-|----------------0---7-5h7-5~------------------------------0----------------
    A-|--------------0--5-8--------8--------------------------1-0-5---------------
    D-|-5~-5~-0-3-5~----------------5~-5~5~5~0----5~-0-3-0-0-3-----5~-------------
    G-|---------------------------------------3-2---------------------------------
    D-|---------------------------------------------------------------------------
    A-|-/--/----/---20--/--/-----/-24--/---/--/--28------/----/--/-32-------------
    <bài viết được chỉnh sửa lúc 21.09.2006 01:08:01 bởi GuitarVongCo >
     
    #47
      GuitarVongCo

      • Số bài : 96
      • Điểm thưởng : 0
      • Từ: 06.01.2006
      • Trạng thái: offline
      Bá Hoa - Dây Đào 06.10.2006 06:09:14 (permalink)
      Bá Hoa (Hơi Quãng) - Dây Đào - 29 Câu Nhịp 1 = 4 Nhịp Con

      Đây là bài của NS Văn Vỉ - NS Văn Vỉ muốn phổ biến những bài bản cho chúng ta để cùng nhau học hỏi và được lưu truyền mãi mãi.



      Dạo
      D-|-5-7-9-9-9-5---2-5-5-------------------------------------------------------
      A-|--------9-7-5~-------------------------------------------------------------
      D-|------9-------------5-5----------------------------------------------------
      G-|---------------------0-----------------------------------------------------
      D-|---------------------------------------------------------------------------
      A-|-/---/-/-/-/--/----/--/----------------------------------------------------
      Câu 1
      D-|--------5------------------------------------------------------------------
      A-|---------------------------------------------------------------------------
      D-|---------------------------------------------------------------------------
      G-|---------------------------------------------------------------------------
      D-|---------------------------------------------------------------------------
      A-|-/-/--/--/-----------------------------------------------------------------
      Câu 2
      D-|---------------------------------------------------------------------------
      A-|-7-5-7-5-0-----------------------------------------------------------------
      D-|---------------------------------------------------------------------------
      G-|---------------------------------------------------------------------------
      D-|---------------------------------------------------------------------------
      A-|---/---//-/----------------------------------------------------------------
      Câu 3
      D-|----------5----------------------------------------------------------------
      A-|--2-0-2--------------------------------------------------------------------
      D-|-------5-------------------------------------------------------------------
      G-|---------------------------------------------------------------------------
      D-|---------------------------------------------------------------------------
      A-|----/--/-/-/---------------------------------------------------------------
      Câu 4
      D-|---------------------------------------------------------------------------
      A-|-7-5-7-5-0-----------------------------------------------------------------
      D-|---------------------------------------------------------------------------
      G-|---------------------------------------------------------------------------
      D-|---------------------------------------------------------------------------
      A-|---/---//-/----------------------------------------------------------------
      Câu 5
      D-|---------------------------------------------------------------------------
      A-|-2-0-2-------------------------------------------------------------------
      D-|------5--0-2-4-5---------------------------------------------------------
      G-|---------------0---------------------------------------------------------
      D-|---------------------------------------------------------------------------
      A-|---/--/----/---/----------------------------------------------------------
      Câu 6
      D-|---------------------------------------------------------------------------
      A-|-5-555-5-5-----------------------------------------------------------------
      D-|---------------------------------------------------------------------------
      G-|---------------------------------------------------------------------------
      D-|---------------------------------------------------------------------------
      A-|//---/---/-----------------------------------------------------------------
      Câu 7
      D-|-----2----2----------------------------------------------------------------
      A-|--2---5-2--5---------------------------------------------------------------
      D-|---------------------------------------------------------------------------
      G-|---------------------------------------------------------------------------
      D-|---------------------------------------------------------------------------
      A-|---/--/--/-/---------------------------------------------------------------
      Câu 8
      D-|---------------------------------------------------------------------------
      A-|-5-555-5-5-----------------------------------------------------------------
      D-|---------------------------------------------------------------------------
      G-|---------------------------------------------------------------------------
      D-|---------------------------------------------------------------------------
      A-|//---/---/-----------------------------------------------------------------
      Câu 9
      D-|-----2---------------------------------------------------------------------
      A-|--2---5-2->5-0-0-----------------------------------------------------------
      D-|---------------------------------------------------------------------------
      G-|---------------------------------------------------------------------------
      D-|---------------------------------------------------------------------------
      A-|----/-/--/-----/-----------------------------------------------------------
      Câu 10
      D-|-5-2-0-2-0-----------------------------------------------------------------
      A-|---------------------------------------------------------------------------
      D-|---------------------------------------------------------------------------
      G-|---------------------------------------------------------------------------
      D-|---------------------------------------------------------------------------
      A-|/-/--/---/-----------------------------------------------------------------
      Câu 11
      D-|---------------------------------------------------------------------------
      A-|--0-2-0-2------------------------------------------------------------------
      D-|---------5-----------------------------------------------------------------
      G-|---------------------------------------------------------------------------
      D-|---------------------------------------------------------------------------
      A-|-/-/--/--/-----------------------------------------------------------------
      Câu 12
      D-|---------2-----------------------------------------------------------------
      A-|--------2------------------------------------------------------------------
      D-|-555-5-5-------------------------------------------------------------------
      G-|---------------------------------------------------------------------------
      D-|---------------------------------------------------------------------------
      A-|---/---///-----------------------------------------------------------------
      Câu 13
      D-|--222-2-2-5----------------------------------------------------------------
      A-|-----------2-5~------------------------------------------------------------
      D-|---------------------------------------------------------------------------
      G-|---------------------------------------------------------------------------
      D-|---------------------------------------------------------------------------
      A-|----/---/--/-/-------------------------------------------------------------
      Câu 14
      D-|--2---2--------------------------------------------------------------------
      A-|2--5~2---------------------------------------------------------------------
      D-|---------------------------------------------------------------------------
      G-|---------------------------------------------------------------------------
      D-|---------------------------------------------------------------------------
      A-|-/-//-/--------------------------------------------------------------------
      Câu 15
      D-|-2-5-2-5-2-0---------------------------------------------------------------
      A-|------------2--0-2-0-------------------------------------------------------
      D-|--------------0------------------------------------------------------------
      G-|---------------------------------------------------------------------------
      D-|---------------------------------------------------------------------------
      A-|-----/------/--/---/-------------------------------------------------------
      Câu 16
      D-|---------------------------------------------------------------------------
      A-|--2-0---2------------------------------------------------------------------
      D-|0-----0--------------------------------------------------------------------
      G-|---------------------------------------------------------------------------
      D-|---------------------------------------------------------------------------
      A-|-/--//--/------------------------------------------------------------------
      Câu 17
      D-|-------------5-------------------------------------------------------------
      A-|-5-2-5-2-0-----------------------------------------------------------------
      D-|----------5----------------------------------------------------------------
      G-|---------------------------------------------------------------------------
      D-|---------------------------------------------------------------------------
      A-|---/------/-/-/------------------------------------------------------------
      Câu 18
      D-|---2-0-2-0-----------------------------------------------------------------
      A-|------------0--------------------------------------------------------------
      D-|---------------------------------------------------------------------------
      G-|---------------------------------------------------------------------------
      D-|---------------------------------------------------------------------------
      A-|-----/---/-/-/-------------------------------------------------------------
      Câu 19
      D-|---------------------------------------------------------------------------
      A-|-2-0-2-----2---------------------------------------------------------------
      D-|------5-555----------------------------------------------------------------
      G-|---------------------------------------------------------------------------
      D-|---------------------------------------------------------------------------
      A-|---/--/---//---------------------------------------------------------------
      Câu 20
      D-|-0-2-5----2-5-2-0----------------------------------------------------------
      A-|-------5~--------2---------------------------------------------------------
      D-|---------------------------------------------------------------------------
      G-|---------------------------------------------------------------------------
      D-|---------------------------------------------------------------------------
      A-|---/---/--/------/---------------------------------------------------------
      Câu 21
      D-|-0-2-5----0-2--------------------------------------------------------------
      A-|-------5~2-----------------------------------------------------------------
      D-|---------------------------------------------------------------------------
      G-|---------------------------------------------------------------------------
      D-|---------------------------------------------------------------------------
      A-|---/---/-/--/--------------------------------------------------------------
      Câu 22
      D-|-5-------------------------------------------------------------------------
      A-|---5~3-2-0-0---------------------------------------------------------------
      D-|----------5----------------------------------------------------------------
      G-|---------------------------------------------------------------------------
      D-|---------------------------------------------------------------------------
      A-|---//--/---/---------------------------------------------------------------
      Câu 23
      D-|------------5--------------------------------------------------------------
      A-|-5-2-5-2-0-----------------------------------------------------------------
      D-|----------5----------------------------------------------------------------
      G-|---------------------------------------------------------------------------
      D-|---------------------------------------------------------------------------
      A-|---/------//-/-------------------------------------------------------------
      Câu 24
      D-|--2-0-2-0------------------------------------------------------------------
      A-|-----------0---------------------------------------------------------------
      D-|---------------------------------------------------------------------------
      G-|---------------------------------------------------------------------------
      D-|---------------------------------------------------------------------------
      A-|----/---/-/-/--------------------------------------------------------------
      Câu 25
      D-|--------5------------------------------------------------------------------
      A-|-2-0-2---------------------------------------------------------------------
      D-|------5--------------------------------------------------------------------
      G-|---------------------------------------------------------------------------
      D-|---------------------------------------------------------------------------
      A-|---/--//-/-----------------------------------------------------------------
      Câu 26
      D-|--2-0-2-0------------------------------------------------------------------
      A-|-----------0---------------------------------------------------------------
      D-|---------------------------------------------------------------------------
      G-|---------------------------------------------------------------------------
      D-|---------------------------------------------------------------------------
      A-|----/---/-/-/--------------------------------------------------------------
      Câu 27
      D-|---------5-----------------------------------------------------------------
      A-|-2-0-2---------------------------------------------------------------------
      D-|------5--------------------------------------------------------------------
      G-|---------------------------------------------------------------------------
      D-|---------------------------------------------------------------------------
      A-|---/--/-/-/----------------------------------------------------------------
      câu 28
      D-|--2-0-2-0------------------------------------------------------------------
      A-|-----------0---------------------------------------------------------------
      D-|---------------------------------------------------------------------------
      G-|---------------------------------------------------------------------------
      D-|---------------------------------------------------------------------------
      A-|----/---/-/-/--------------------------------------------------------------
      câu 29
      D-|---------------------------------------------------------------------------
      A-|-2-0-2---------------------------------------------------------------------
      D-|------5--0-2-4-5-----------------------------------------------------------
      G-|---------------------------------------------------------------------------
      D-|---------------------------------------------------------------------------
      A-|---/--/----/---/-----------------------------------------------------------
       
      #48
        GuitarVongCo

        • Số bài : 96
        • Điểm thưởng : 0
        • Từ: 06.01.2006
        • Trạng thái: offline
        Nam Ai - 8 Câu - Dây Đào 27.10.2006 10:29:17 (permalink)
        Nam Ai (1 trong 3 bài nam) - 8 Câu - Nhịp 4 = 16 Nhịp Con
        Với tiếng đàn của NS Văn Lắm



        Lớp Trống 1

        Câu 1
        D-|-0------------------------------------------0------------------------------
        A-|---1-0------------------1-0-0-0-0--------0-0----0--------------------------
        D-|------5~-5~-3-5~5n5~0-5~---------3-0--0-3-----5~-3-0-----------------------
        G-|---------------------------2---------2-------------------------------------
        D-|---------------------------------------------------------------------------
        A-|---/--4--/----/-/-8---/---/-/--12--/-----/----/---16-----------------------
        Câu 2
        D-|---------------------------------------------------------------------------
        A-|----------------------1-0--------------------------------------------------
        D-|--------------0----5~0-----3-5~5~-0-3-5-7->12->7-5n5~3-0-0-----------------
        G-|-----7-7-5-----3-2------------------------------2--------------------------
        D-|----------5~5~------------------------------------------0------------------
        A-|---/---/--/-4--/---/--/------8-/----/---/-----12-/-----/-/-16--------------
        Câu 3
        D-|3-0-3-2-0-3--------0---9-0-12-9-12-9-----------9^7-7-5p3-0--9-9^9-12-9-12---
        A-|-----------0-1-0------9-------------12-9-10~10~---------5----9-----------9-10~
        D-|---------3------3-0-12----------------------------7-------12---------------
        G-|---------------------------------------------------------------------------
        D-|---------------------------------------------------------------------------
        A-|--/------/-/------4-/-------/------/------8--/---/-/---12--/--/------/-----16
        Câu 4
        D-|-------------7-2--0--------------------0-----------------------------------
        A-|-10~-0-3--5-7------5-3--------0-5--0--0-5-2-0------------------------------
        D-|----------------------5~-3-0-3---5~--3-------5~-0-0-0-0---5~-5~------------
        G-|------------------------------------2----------------3-3-2-----------------
        D-|---------------------------------------------------------------------------
        A-|-/-----/----/--4---/--/----/-----8--/-/---/----12----/----/--/--16---------
        Câu 5
        D-|---------------------------------------------------0-----------------------
        A-|-------0-1-0-1-0---0-5-----------0-1-0-1-0---0--1-0--1-0-------------------
        D-|-0-3-5~-0-------3-3---5~-3-0-0-0----------3-0--3--------0-5~---------------
        G-|-----------------2----------------------------3----------------------------
        D-|----------------------------0----------------------------------------------
        A-|---/---/-/-----4-/-/--/----8/--/-----/-----12-/-/----/----16---------------
        Câu 6
        D-|---------7------0------------------------0---------------------------------
        A-|-----7-10-10n-10-5n-5-3----------0--0---0-1-0------------------------------
        D-|-5~-7------------------5~3-0-3-5--5~---3-----5--3-0-0-0-0---5~-5~----------
        G-|-------------------------------------2-----------------3-3-2---------------
        D-|---------------------------------------------------------------------------
        A-|-/---/---/----4--/-----/---/------8--/--/-/------12----/----/--/--16-------
        Câu 7
        D-|--------------------------------------------0------------------------------
        A-|-5n--------0-1---0-0----------------0-1----0-5--0--------------------------
        D-|---3-0-3-5~-----3---5~-0h3n-3-0-3-5~----0-3---5~-3-0-----------------------
        G-|---------------2--2--------------------2-----------------------------------
        D-|---------------------------3-----------------------------------------------
        A-|-/-/---/---4---/-/-/---8--/-/---/--12--/---/--/---16-----------------------
        Câu 8
        D-|-----3-2-3-2-0--------0---0-------0-7-5~-3-0-------------------------------
        A-|--------------1-3-1-0--1-0-5-----0--------0-----5--------------------------
        D-|--0-0----------------3-------5~5~-----------5~p3---------------------------
        G-|---------------------------------------------------------------------------
        D-|-0-------------------------------------------------------------------------
        A-|-/--/--/------4------/-/--/--8-/--/---/--12-/---/-/-16---------------------
        <bài viết được chỉnh sửa lúc 03.05.2007 08:50:53 bởi GuitarVongCo >
         
        #49
          GuitarVongCo

          • Số bài : 96
          • Điểm thưởng : 0
          • Từ: 06.01.2006
          • Trạng thái: offline
          Nam Xuân - 8 Câu - Dây Đào 15.12.2006 12:29:07 (permalink)
          Nam Xuân 8 câu - Mổi câu có 4 Nhịp = 16 Nhịp Con
          (1 trong 3 bài nam)
          mp3 của bài này để nghe trước khi dợt
           

          Dạo
          D-|-12-12-12-12-12-12-121212-12-----10-12--12-10--------10-12--12-10----------
          A-|----------------------------10-12-----10-----12-10-12-----10-----12-10-12--
          D-|---------------------------------------------------------------------------
          G-|---------------------------------------------------------------------------
          D-|---------------------------------------------------------------------------
          A-|---------------------------------------------------------------------------

          D-|-10-12-0-12-9--12------0-------------------------------------7->12-12------
          A-|-------------12--9ng--9-5n~-0-----0-3-5-3-0-----------------5----------10ng~
          D-|-----12----------------------7-3~5---------5-0-----------------------12----
          G-|--------------------12----------------------0-7------------7---------------
          D-|-----------------------------------------------7~->12->10-0----------------
          A-|---------------------------------------------------------------------------
          Câu 1
          D-|------9-7--------------------7-7-5------0----0-----5n----------------------
          A-|---------10-10-8~-10-10-10-10-----5n-5-5-5-3-------------------------------
          D-|--------------------------------------------5-8n~7-------------------------
          G-|---------------------------------------------------------------------------
          D-|---------------------------------------------------------------------------
          A-|-/-/--/---4--/----/---/-----8--/--/-/-12-/--/--/--16-----------------------
          Câu 2
          D-|-5-0-5-7->12-12-12-12-9---------10------------0-0-7-5-0----0----5-7-5------
          A-|----5------------------12--10-8~--8~-10-10n-10-5-------5-3-----------------
          D-|----------------------------------------------------------5-8~-7-----------
          G-|---------------------------------------------------------------------------
          D-|---------------------------------------------------------------------------
          A-|-/--/--/-------4------/-----/--/------8------/-/----/----12-/---/---/-16---
          Câu 3
          D-|---------------------------------------------------------------------------
          A-|--------5------0-----------------------------------------------------------
          D-|---0-5-7-8~-7-5-7-7n-7-5--------------------------------0--5---------------
          G-|--7---------------------7-5--------7-5-----5-7-5-5-7-5-7-7^----------------
          D-|---------------------------5-5-5n-5---7-5-7-----7-----0-----7--------------
          A-|---/---/-/----4-/----/--/--8-/----/---/-----12-----/---/-/--16-------------
          Câu 4
          D-|---------------------------------------------------------------------------
          A-|--------------------------------------------------5------------------------
          D-|-------------5-7-5-0---------------------------5-7-7-7->5------5n5---------
          G-|--7-5-5---5-7-------7-5-0---------5-7-5-------7----------0-7---------------
          D-|-7---7-5-7---------------0-3-5->7------7-5-0-5--------------8~7------------
          A-|-/---/---/--4----/------/-------/------8-----/---/-/----12--/--/-/-16------
          Câu 5
          D-|---------------------------------------------------------------------------
          A-|----------5------0--------------0------------------------------------------
          D-|-7-5-0-5-7-8~-7-5-7-5-7->12->7-7-5---------------7-------------------------
          G-|----------------------------------7-5------7---7---------------------------
          D-|-------------------------------------5n-5----0----7------------------------
          A-|-----/---/-/----4-/---/------/--8-/--/-/-12-/-/-/16------------------------
          Câu 6
          D-|---------------------------------------------------------------------------
          A-|-------------------------------------------------0-------------------------
          D-|-------------5h7-5-0-------------------------5-7---5-------5n-5------------
          G-|--7-5-5---5-7-------7-5-0-------5-7-5-----7^--------0-7--------------------
          D-|-----7-5-7---------------0-3-5>7-----5-0-5-------------8~-7----------------
          A-|-/---/---/--4----/------/------/-----8---/--/----/-12--/---/--/-16---------
          Câu 7
          D-|-0-------------9--9-------7-5---2-------------------2-5-2~-0---------5-7-5-
          A-|----10-12-10-12-10-12-10-0---7~0-5-3-5-3-0-5-3-0-3-5--------3-0-3-5-7~----5
          D-|--12-----------------------------------------------------------------------
          G-|---------------------------------------------------------------------------
          D-|---------------------------------------------------------------------------
          A-|---/----/------/-------4--/--/--/------8-----/------/---/--12---/---/--/-16
          Câu 8
          D-|---0-7-5-----0-5-2-0-2------7-5--0--5-5------------------------------------
          A-|--5-0---7-5-0-------0-5-3n-3---7~-5--3--5n~--------------------------------
          D-|-0-------------------------------------5-----------------------------------
          G-|---------------------------------------------------------------------------
          D-|---------------------------------------------------------------------------
          A-|-/-/-/--4---/----/---/-----8-/-/--/-12-/-/-/-16----------------------------
          <bài viết được chỉnh sửa lúc 03.05.2007 08:50:01 bởi GuitarVongCo >
           
          #50
            TVC

            • Số bài : 1
            • Điểm thưởng : 0
            • Từ: 06.01.2007
            • Trạng thái: offline
            XIN ĐƯỢC GIẢI ĐÁP 07.01.2007 08:46:26 (permalink)
            Thân chào GuitarVongco !
             Làm ơn cho hỏi những ký hiệu dưới đây, tôi diễn giải có đúng không:
            + 4h7 : gảy đàn đồng thời với ngón tay nhấn ngăn số 4 rồi chuyển sang ngăn số 7 ( gảy đàn chỉ một lần duy
               nhất cho hai nhấn đó).
            + 2h3 ; 10h12...v..v.. tương tự như trên.
            + 9^7 : Nhấn ngăn số 9 rồi biến hoá thành tiếng "tịch", sau đó nhấn ngăn 7 và gảy bình thường.
            + 3n : cái này đánh làm sao chưa hiểu.
             Có cách gì làm cho tiếng đàn mẫu chậm lại để nghe và biết được chỗ nào nhanh, chỗ nào nghỉ, chỗ nào chậm....như vậy sẽ dễ tiếp thu hơn và tiếng đàn sẽ nghe giống "vọng cổ" hơn. Nếu chỉ thuộc thôi, đánh nghe nó làm sao ấy !!!
               Môn vọng cổ này hồi trẻ tôi rất thích, khi lướt Web gặp được bài của GuitarVongco, tôi mua ngay một cây đàn phím lõm sáu dây về tập, nhưng quả thật là khó.
               Rất mong được sự giúp đỡ. Xin chân thành cảm ơn.

            cương
             
            #51
              GuitarVongCo

              • Số bài : 96
              • Điểm thưởng : 0
              • Từ: 06.01.2006
              • Trạng thái: offline
              RE: XIN ĐƯỢC GIẢI ĐÁP 10.01.2007 02:02:04 (permalink)
              Chào TVC,
               
              4h7 = gẩy nốt ở ngăn 4 dùng ngón trỏ & giử rồi bấm nốt ở ngăn 7 dùng ngón út. Tức là dùng 2 ngón tay để bấm chứ không phải dùng 1 ngón gẩy nốt dưới rồi kéo lên nốt trên.
              Trường hợp kéo thì tôi viết : 4->7
              Đây là ký hiệu của TAB, h=hammer on.
               
              3n = gẩy nốt ở ngăn 3 & dùng ngón tay bấm đó nhấn xuống để nốt đó nghe cao hơn. Thường tôi viết như vậy nhấn tùy hứng có thể nhấn lên đến 2 ngăn đàn.
               
              Phần nhịp thì tôi ghi ở dòng cuối  như / / / 4 / / / 8 / / / 12 / / / 16. Lúc đầu mới tập chưa đúng nhịp hoặc đàn chưa thấm cho nên nghe không giống như vọng cổ nhưng 1 thời gian thì TVC sẽ cảm giác được cái mùi của nó. Trang đầu có nhiều chỉ dẩn nữa.
              TVC hãy ráng lên nha. 
               
              Xin TVC thông cảm đừng post lên trang này vì để bài post sau này của tôi được liên tục.
              TVC có thể PM cho tôi.
               
              Chúc TVC thành công.
               
              #52
                GuitarVongCo

                • Số bài : 96
                • Điểm thưởng : 0
                • Từ: 06.01.2006
                • Trạng thái: offline
                Guitar Vọng Cổ Câu 1 2 Dây Kép (sol) 17.01.2007 03:45:49 (permalink)
                Guitar Vọng Cổ Câu 1 2 - Dây Kép (sol)
                 
                Bài này là tổng hợp của bài dây kép của trang trước (có thêm bớt 1 ít).
                Không cần audio quí vị cũng có thể đàn 1 cách dể dàng.

                 

                Câu 1 - Hò, Xê, Xang, Cống

                D-|----------0-5-2-5-2-0----------------------------0-5-----------------------
                A-|---------2-----------2-5-3~--------------------5----3~---------------------
                D-|-5----0-5------------------0----0---0-3-5-0-5-8-------0-3-5-3----5---------
                G-|-----0-----------------------0-3-3---------------------------5~-3----------
                D-|----------------------------------0----------------------------------------
                A-|16//-/--4-/---/------/-----8----/--/----/------12--/--/------/---16--------

                D-|----5-8-5-5-0---8-5-7-8-7-5-5------0-5-2-5-2-0-----------5----0------------
                A-|-5-8-------------------------7n-6-5-5---------2-5-3~----5-2--2---7-5-------
                D-|-------------8-8-----------8------------------------5-5-----5--------------
                G-|-----------------------------------------------------0---------------------
                D-|---------------------------------------------------------------------------
                A-|-/------/---/--4--/-------/-/-----8-/--/------/----12--/--/--/----12-------
                Xang
                D-|-5------------8-5-8-7-5-----0-5-2-5-2-----------0-5-2-5-2-0----------------
                A-|--7n-7-5-5---5---------8-7-5-5-------5-2-5-3~----------------3~------------
                D-|--------0-8-5--------------------------------5-5-----------5---------------
                G-|----------------------------------------------0----------------------------
                D-|---------------------------------------------------------------------------
                A-|-/--/--/-4--/-/-----/------8-/--/------/----12-/--/-----/----16------------
                Cống
                D-|-----------0---0-8-8-7-5----0-5-2-5-2-0---------2-5------5-----------------
                A-|-3~-3~-3~-2-3~--5-------7-5--5---------2-5-3~------2-3~-5-7----------------
                D-|---------0----5-----------------------------5-5----------------------------
                G-|---------------------------------------------0-----------------------------
                D-|---------------------------------------------------------------------------
                A-|--/----/--/---4-/--/---/--8--/--/------/---12-/----/---/--16---------------
                Cau 2 - Xề, Xang, Xang, Hò, Hò, Xê, Xê, Xang
                Xề
                D-|-5----------8-5-8-5-5--------0-0-3-5--5-2-5-5----0-------------------------
                A-|--7n-7-5-5---------------7-5--5-5---3~-----5--0-2-3~-2---------------------
                D-|--------0----8-----8-------------------------5--------0--------------------
                G-|---------------------------------------------------------------------------
                D-|---------------------------------------------------------------------------
                A-|-/--/--/-4---/----/-/------8--/----/--/---12-/--/-/---16-------------------
                Xang

                D-|-1-3-1-0---------------------------------0-5-2-5-2-0----------------------0-2-0--
                A-|--------1-3-1-0---------------------------5---------2-5-3~-------------0-2------3~
                D-|---------------1-3-1-0-5-5-5-3--0---0-0-------------------5-------0-3-5--------5-
                G-|------------------------------5~-0-3-0-3-------------------0-3-5-7---------------
                D-|----------------------------------------0----------------------------------------
                A-|-/------/------/-------4------/--/--/---8-/--/------/----12----/------/-----/---16
                Xang
                D-|-----------0-9-5-7-9-7-5------0-5-2-5-2-0---------0-5-2-5-2-0--------------
                A-|-3~-3~-3~---5-----------7-7->5-----------2-5-3~----------------3~----------
                D-|-----------------------------------------------5-5-----------5-------------
                G-|------------------------------------------------0--------------------------
                D-|---------------------------------------------------------------------------
                A-|/--/---/-4--/--/-------/--8---/---/------/----12-/--/-----/----16----------

                D-|---------0---0-5-8-5----------------------------0-5------------------------
                A-|-3~3~3~-2-3~--5-----7-5---------------------5------3~----------------------
                D-|-------0----5----------8-7-5-8-0-0-5-3~0-5-8---------0-3-5-3---5-----------
                G-|---------------------------------------------7--------------5~3------------
                D-|---------------------------------------------------------------------------
                A-|--/--/--/---4-/----/---/-------8-----/---/--/-12--/--/------/--16----------

                D-|-----------0-5-2-------0--0-8-7-5-5-8--------------------------------------
                A-|---------3n-----5-5-3~--8n-5-----8---5-----5-5-----------------------------
                D-|--5-5-0-5-------------0---------------8-5h8---8-5--------------------------
                G-|-----0--------------------------------------7------------------------------
                D-|---------------------------------------------------------------------------
                A-|-/-/-/--4--/---/--/---8-/--/----/---12--/--/-/--16-------------------------

                D-|-----------------------5-7-8-8-5-7-8-7-5---0-5-2-5-2-0---------0-5----0-5-----
                A-|----------------5-8-5-8-----------------7-5-5---------2-5-3~------2-3~---7-5-5
                D-|-5-8-5-8-5-8-5-8------------8-------------------------------5-5---------------
                G-|-------------------------------------------------------------0----------------
                D-|------------------------------------------------------------------------------
                A-|-/-------/------/------4----/--/-------/--8-/--/------/----12-/---/---/------16

                D-|-5------------8-5-8-7-5-----0-5-2-5-2-0---------2-5------------------------
                A-|--7~-5-555---5---------8-7-5-5---------2-5-3~------2-3~-5-7-5--------------
                D-|------0---8-5--------------------------------5-5---------------------------
                G-|----------------------------------------------0----------------------------
                D-|---------------------------------------------------------------------------
                A-|-/--/-/--4--/-/-----/------8-/--/------/----12-/---/--/-----16-------------
                Xang
                D-|--------5-7-8-7-5-7-5-----5-8-5-8-5-----0-5-2-5-2-0---------0-5-2-5-2-0----
                A-|-555-5-5-------------8~5-8---------8-7-5-----------2-5-3~---------------3~-
                D-|-------------------------------8-------------------------5-5-----------2---
                G-|----------------------------------------------------------0----------------
                D-|---------------------------------------------------------------------------
                A-|---/---/----/-------4--/------/-/------8-/--/------/----12-/--/-----/---16-

                <bài viết được chỉnh sửa lúc 20.01.2007 08:37:18 bởi GuitarVongCo >
                 
                #53
                  GuitarVongCo

                  • Số bài : 96
                  • Điểm thưởng : 0
                  • Từ: 06.01.2006
                  • Trạng thái: offline
                  Guitar Vọng Cổ Câu 5 6 Dây Kép (sol) 20.01.2007 04:25:32 (permalink)

                  Câu 5,6 Dây Kép (sol)
                   
                  Bài này là tổng hợp của bài dây kép của trang trước (có thêm bớt 1 ít).
                  Không cần audio quí vị cũng có thể đàn 1 cách dể dàng.

                   

                  Hò (bắt đầu câu 5 - Hò, Xê, Xê, Xê)
                  D-|----------0-5-2---------------------------0-5-------------------------------
                  A-|--------3~-----5-5-3~--------------------5---3~-----------------------------
                  D-|-5---0-5------------0---0----0-3-5-0-5-8-------0-3-5-3----5-----------------
                  G-|----0----------------0-3-3----------------------------5~-3------------------
                  D-|--------------------------0-------------------------------------------------
                  A-|16///--4--/---/--/--8---/--/-----/------12--/--/------/---16----------------

                  D-|------------------0-0------------------------0-5-2-5-20----------5----0----
                  A-|------------0-1-0----1~-0---------------------5--------2-5-3~---5-2-2---7-5
                  D-|5---0-0-3-5--------------1-3-1-0-5-3------------------------5-5----5-------
                  G-|-0h3-3------------------------------5~-3-0-3-----------------0-------------
                  D-|--------------------------------------------0------------------------------
                  A-|/---/-----/-------4---/------/------/-------8-/--/-----/---12--/--/-/----16

                  D-|-5------------8-5-8-7-5-----0-5-2-5-2-0---------2-5------------------------
                  A-|--7n-7-5-5---5---------8-7-5-5---------2-5-3~------2-3~-5-7-5--------------
                  D-|--------0-8-5--------------------------------5-5---------------------------
                  G-|----------------------------------------------0----------------------------
                  D-|---------------------------------------------------------------------------
                  A-|-/--/--/-4--/-/-----/------8-/--/------/----12-/---/---/---16--------------
                  Xề
                  D-|--------5-7-8-7-5-7-5-----5-8-5-8-5-----0-0-3-5--5-2-5-5----0--------------
                  A-|-555-5-5-------------8~5-8---------8-7-5-5-5---3~-----5--0-2-3~-2----------
                  D-|-------------------------------8------------------------5--------0---------
                  G-|---------------------------------------------------------------------------
                  D-|---------------------------------------------------------------------------
                  A-|---/---/----/-------4--/------/-/------8-/----/--/---12-/--/-/---16--------
                  Xề
                  D-|---------------------------------------------------------------------------
                  A-|---------------------------------------------------------------------------
                  D-|--00000--7-10-7-10-7--7->5-5-3~-0h2-0----------------0---------------------
                  G-|-------------------------------------4-4-2h4-2---0h2--4~-2-----------------
                  D-|----------------------------------------------5-5---------5~2-0------------
                  A-|/-/---/--4---------/--/------/----8--/--/---/--12---/-/---/---16-----------


                  D-|--5->7-9-9-7-9-7-5-5-----0-5-2-5-2-0---------2-5-----5---------------------
                  A-|--------7---7-------7n6-5-5---------2-5-3~------2-3~5-7-5-5----------------
                  D-|------------------9-----------------------5-5------------------------------
                  G-|-------------------------------------------0-------------------------------
                  D-|---------------------------------------------------------------------------
                  A-|-/--/---/--4-/---/-/----8-/--/------/----12-/---/---/-----16---------------
                  Xang
                  D-|-5--------5-7-9-5-7-9-7-5---0-5-2-5-2-0---------0-5-2-5-2-0----------------
                  A-|--7~-5-555---------------7-5-5---------2-5-3~----------------3~------------
                  D-|------0--------------------------------------5-5-----------5---------------
                  G-|----------------------------------------------0----------------------------
                  D-|---------------------------------------------------------------------------
                  A-|-/-/--/--4--/---/-------/--8-/--/------/----12-/--/-----/----16------------
                  Cống
                  D-|-----------0-9-5-7-9-7-5-----0-5-2-5-2-0---------2-5------5----------------
                  A-|-3~3~3~2-3~-5-----------7-7-5-----------2-5-3~------2-3~-5-7---------------
                  D-|--------0-5-----------------------------------5-5--------------------------
                  G-|-----------------------------------------------0---------------------------
                  D-|---------------------------------------------------------------------------
                  A-|--/--/--/-4-/--/-------/--8--/---/------/----12-/---/---/--16--------------

                  D-|-5------5-7-9-5-5------0-5-2-5-2-0---------2-5-----------------------------
                  A-|--7~-5-5---------7-7->5-----------2-5-3~------2-3~-5-7-5-------------------
                  D-|------0--------9------------------------5-5--------------------------------
                  G-|-----------------------------------------0---------------------------------
                  D-|---------------------------------------------------------------------------
                  A-|-/--/-/4--/---/-/--8---/---/------/----12-/---/---/---16-------------------

                  D-|--------5-7-9-5------5-8-5-5-----0-0-3-5--5-2-5-5----0---------------------
                  A-|-555-5-5-------8~-5-8-------7n6-5-5-5---3~-----5--0-2-3~2------------------
                  D-|--------------------------8----------------------5-------0-----------------
                  G-|---------------------------------------------------------------------------
                  D-|---------------------------------------------------------------------------
                  A-|---/---/--/---4---/-----/--/----8-/----/--/---12-/--/-/--16----------------

                  D-|---------0-------------------------0-5-2-5-2-0---------2-5-----------------
                  A-|-----0-0---1-0----------------------5---------2-5-3~------2-3~-5-7-5-------
                  D-|-3-5~-7-------5~-3-2-3-2-0--------------------------5-5--------------------
                  G-|--------------------------5--3-0-3-------------------0---------------------
                  D-|----------------------------------0----------------------------------------
                  A-|-/---/-/---4--/----/------/-------8-/--/------/----12-/---/---/---16-------

                  D-|--------8-7-5--------5-8-5---------------------------0-5-------------------
                  A-|---5-5-5-------8~-5-8-----7-5---------------------5-----3~-----------------
                  D-|--0--------------------------8-7-5-8-0-0-5-3~0-5-8--5----0-3-5-3----5------
                  G-|---------------------------------------------------7------------5~-3-------
                  D-|---------------------------------------------------------------------------
                  A-|--/--/--/---4-----/------/---/-------8-----/---/--/12--/-/------/---16-----
                  <bài viết được chỉnh sửa lúc 10.02.2007 00:29:41 bởi GuitarVongCo >
                   
                  #54
                    GuitarVongCo

                    • Số bài : 96
                    • Điểm thưởng : 0
                    • Từ: 06.01.2006
                    • Trạng thái: offline
                    Guitar Vọng Cổ Câu 4 6 Dây Kép (sol) 20.01.2007 05:12:25 (permalink)
                    Reserved.
                     
                    #55
                      GuitarVongCo

                      • Số bài : 96
                      • Điểm thưởng : 0
                      • Từ: 06.01.2006
                      • Trạng thái: offline
                      Lý Cái Mơn - Dây Đào 20.01.2007 05:22:54 (permalink)

                      Lý Cái Mơn - Dây Đào
                       
                      Dạo
                      D-|---------------------------------------------------------------------------
                      A-|-------------0-3-0-0-0-0------3-5-3-5-3~-5-3-0-3------5--------5-----------
                      D-|-0-3-------0----------5-5-3-5~-----3------------3-5->7--0-3-5-7------------
                      G-|----2-0-2-5----------------------------------------------------------------
                      D-|---------------------------------------------------------------------------
                      A-|----/------/-/-----/---/----/-/----/--/------/--/-----/-/------/-----------
                      Vô Bài
                      D-|---------------------------------------------------------------------------
                      A-|----------------------------0-5--------------------------------------------
                      D-|---...---0-3-5~-3-5~-3-5-3-5-----------------------------------------------
                      G-|---------------------------------------------------------------------------
                      D-|---------------------------------------------------------------------------
                      A-|---------/---/-/--/----/------/--------------------------------------------


                      D-|----0----------------------------------------------------------------------
                      A-|---0-1-0----0---0-0--------------------------------------------------------
                      D-|--------5~---5-3-5-5-3-5~--------------------------------------------------
                      G-|---------------------------------------------------------------------------
                      D-|---------------------------------------------------------------------------
                      A-|-/-/-/--/-/----/--/----/---------------------------------------------------

                      D-|---------------------------------------------------------------------------
                      A-|-0-0-0-0-0-0-0---------0---0---------0-------------------------------------
                      D-|--------------5-3-5-3-5-----5-3----0--5-3----0-----------------------------
                      G-|-------------------------------2->5------2->5------------------------------
                      D-|---------------------------------------------------------------------------
                      A-|-----/-------/--/------/----/------/--/------/-----------------------------


                      D-|---------------------------------------------------------------------------
                      A-|---------------------------------------------------------------------------
                      D-|--------0-3-0-3---------0--------------------------------------------------
                      G-|-2-0-2-5---------2-0-2-5---------------------------------------------------
                      D-|---------------------------------------------------------------------------
                      A-|-/------/--------/------/--------------------------------------------------
                       
                      D-|---------------------------------------------------------------------------
                      A-|-0-3-0-3-0-0-0-------------------------------------------------------------
                      D-|------------5-5-3-5~-------------------------------------------------------
                      G-|---------------------------------------------------------------------------
                      D-|---------------------------------------------------------------------------
                      A-|-/-------/---/----/--------------------------------------------------------

                      D-|---------------------------------------------------------------------------
                      A-|-3-5-5-3~-5-3-0--5-3------5-5-3-0-3-5--------------------------------------
                      D-|----3---------------3-5->7-------------------------------------------------
                      G-|---------------------------------------------------------------------------
                      D-|---------------------------------------------------------------------------
                      A-|-/--/--/------/-----/-----/-/-------/--------------------------------------
                      Nếu đàn tiếp thì chầu
                      D-|---------------------------------------------------------------------------
                      A-|-3-0-----------------------------------------------------------------------
                      D-|----5-3-0-...--------------------------------------------------------------
                      G-|---------------------------------------------------------------------------
                      D-|---------------------------------------------------------------------------
                      A-|-/------/------------------------------------------------------------------

                      <bài viết được chỉnh sửa lúc 20.01.2007 06:59:43 bởi GuitarVongCo >
                       
                      #56
                        GuitarVongCo

                        • Số bài : 96
                        • Điểm thưởng : 0
                        • Từ: 06.01.2006
                        • Trạng thái: offline
                        Lý Con Sáo Gò Công - Dây Đào 23.01.2007 02:57:23 (permalink)

                        Lý Con Sáo Gò Công - Dây Đào



                        Khúc dạo có thể dùng câu cuối như thế này :

                        D-|---------------------------------------------------------------------------
                        A-|----------------0----------------------------------------------------------
                        D-|-2-3-2-0--0-2-5~--------0--------------------------~-----------------------
                        G-|--------5~--------2-5->7--2-0----------------------------------------------
                        D-|-----------------------------3-2-0-----------------------------------------
                        A-|-/------/---/-----/-----/-/------/-----------------------------------------
                        Vô Bài
                        D-:---------------------------------------------------------------------------
                        A-|--------0------------------------------------------------------------------
                        D-|-0-0-5-3-5~----------------------------------------------------------------
                        G-|--2------------------------------------------------------------------------
                        D-|---------------------------------------------------------------------------
                        A-|-/-/-----/-----------------------------------------------------------------

                        D-|---------------------------------------------------------------------------
                        A-|-0-1-0---------------------------------------------------------------------
                        D-|------5~-3-0-0-3-5--3-5~---------------------------------------------------
                        G-|------------2--------------------------------------------------------------
                        D-|---------------------------------------------------------------------------
                        A-|-/---/-----/-/--------/----------------------------------------------------

                        D-|---------------------------------------------------------------------------
                        A-|-0-1-0---------------------------------------------------------------------
                        D-|------3-5~-3-5~7-0---------------------------------------------------------
                        G-|------------------2-3-2-0-0-2----------------------------------------------
                        D-|-----------------------3-3---0---------------------------------------------
                        A-|-/---/--/--------//---/-/----/---------------------------------------------

                        D-|---------------------------------------------------------------------------
                        A-|--------0------------------------------------------------------------------
                        D-|-0-0-5-3-5~----------------------------------------------------------------
                        G-|--2------------------------------------------------------------------------
                        D-|---------------------------------------------------------------------------
                        A-|-/-/-----/-----------------------------------------------------------------

                        D-|---------------------------------------------------------------------------
                        A-|-0-1-0---------------------------------------------------------------------
                        D-|------5~-3-0-0-3-5~-3-5~---------------------------------------------------
                        G-|------------2--------------------------------------------------------------
                        D-|---------------------------------------------------------------------------
                        A-|-/---/-----/-/--------/----------------------------------------------------

                        D-|---------------------------------------------------------------------------
                        A-|----------------0----------------------------------------------------------
                        D-|-2-3-2-0--0-2-5~--------0--------------------------------------------------
                        G-|--------5~--------2-5->7---------------------------------------------------
                        D-|---------------------------------------------------------------------------
                        A-|-/------/---/-----/-----/--------------------------------------------------

                        D-|---------------------------------------------------------------------------
                        A-|----------------0----------------------------------------------------------
                        D-|-2-3-2-0--0-2-5~--------0--------------------------~-----------------------
                        G-|--------5~--------2-5->7---------------------------------------------------
                        D-|---------------------------------------------------------------------------
                        A-|-/------/---/-----/-----/--------------------------------------------------

                         
                        <bài viết được chỉnh sửa lúc 23.01.2007 07:41:35 bởi GuitarVongCo >
                         
                        #57
                          GuitarVongCo

                          • Số bài : 96
                          • Điểm thưởng : 0
                          • Từ: 06.01.2006
                          • Trạng thái: offline
                          Lý Tòng Quân - Dây Đào 26.01.2007 00:45:23 (permalink)
                          Lý Tòng Quân - Dây Đào


                          Dạo
                          D-|---------------------------------------------------------------------------
                          A-|------0-0------------------------------------------------------------------
                          D-|-0-3-5---5~-3-0-3-0-3-5-3-0------------------------------------------------
                          G-|-------2-----------------5~------------------------------------------------
                          D-|---------------------------------------------------------------------------
                          A-|-/----/-/-----/-------/---/------------------------------------------------
                          Vô Bài
                          D-|-0-----------0-------------------------------------------------------------
                          A-|--3~0-5-5-3-0-3~-----------------------------------------------------------
                          D-|-----0---------------------------------------------------------------------
                          G-|---------------------------------------------------------------------------
                          D-|---------------------------------------------------------------------------
                          A-|-/--/-/-----/-/-/----------------------------------------------------------
                           
                          D-|------------7-7-5-0--------------------------------------------------------
                          A-|-5->7-7-8-7------7-5-3-0-----0---------------------------------------------
                          D-|------------------------0-3-5----------------------------------------------
                          G-|---------------------------------------------------------------------------
                          D-|---------------------------------------------------------------------------
                          A-|------/---/-/----/-----/-----/---------------------------------------------
                           
                          D-|---------------------------------------------------------------------------
                          A-|----0---5-3-0-5-3-0-5-3-0----0-3-0---------0-3-5-3-0-----------------------
                          D-|-0-0---------------------5-3------5-3-5-3-5--------------------------------
                          G-|---------------------------------------------------------------------------
                          D-|---------------------------------------------------------------------------
                          A-|-/--/-------------/--------/-/------/------/-------/-----------------------
                          ****** Hoặc viết lại câu trên cho dể chơ
                          i (ít chử đờn hơn) ******
                          ****** Nhưng ráng đàn câu trên cho được                    ******
                          D-|---------------------------------------------------------------------------
                          A-|----0---------5-3-0----------0-3-0---------0-3-5-3-0-----------------------
                          D-|-0-0---------------------5-3------5-3-5-3-5--------------------------------
                          G-|---------------------------------------------------------------------------
                          D-|---------------------------------------------------------------------------
                          A-|-/--/-------------/--------/-/------/------/-------/-----------------------

                          D-|----0-3-0---3-0----0-3-0---------------------------------------------------
                          A-|---------------1-0------1-0-1-0--------------------------------------------
                          D-|-0-----------------------------5-0h3---------------------------------------
                          G-|---------------------------------------------------------------------------
                          D-|---------------------------------------------------------------------------
                          A-|-/--/---/--------/-/------/------/---/-------------------------------------

                          D-|-2h3p2-0-------------------------------------------------------------------
                          A-|--------0-0-3~-5-----------------------------------------------------------
                          D-|---------0-----------------------------------------------------------------
                          G-|---------------------------------------------------------------------------
                          D-|---------------------------------------------------------------------------
                          A-|-/------/-/----/-----------------------------------------------------------

                          D-|-0-----------5~-7----------------------------------------------------------
                          A-|--5-3~-0-5->7----5---------------------------------------------------------
                          D-|---------------------------------------------------------------------------
                          G-|---------------------------------------------------------------------------
                          D-|---------------------------------------------------------------------------
                          A-|--/----/-----/---/---------------------------------------------------------

                          <bài viết được chỉnh sửa lúc 23.02.2007 00:54:19 bởi GuitarVongCo >
                           
                          #58
                            GuitarVongCo

                            • Số bài : 96
                            • Điểm thưởng : 0
                            • Từ: 06.01.2006
                            • Trạng thái: offline
                            Lý Trăng Soi - Dây Đào 31.01.2007 00:43:06 (permalink)
                            Lý Trăng Soi - Dây Đào
                             

                            D-|---------------------------------------------------------------------------
                            A-|---------------------------------------------------------------------------
                            D-|-0-0-0---------------------------------------------------------------------
                            G-|------2--------------------------------------------------------------------
                            D-|---------------------------------------------------------------------------
                            A-|-/-/--/--------------------------------------------------------------------
                             
                            D-|---------------------------------------------------------------------------
                            A-|-------------------5-5-0---------------------------------------------------
                            D-|-0---5~-5~-3-5~5->7-----5~-3-0---------------------------------------------
                            G-|--3p2----------------------------------------------------------------------
                            D-|---------------------------------------------------------------------------
                            A-|--/--/--/----/-----/-/--/----/---------------------------------------------
                             
                            D-|---------------------------------------------------------------------------
                            A-|-------------------0-------------------------------------------------------
                            D-|--------------0-0-2--2-3-2-0-----------------------------------------------
                            G-|-2-3-2-0-------2------------5~---------------------------------------------
                            D-|--------3-2-0--------------------------------------------------------------
                            A-|-----/------/--/--///-/-----/----------------------------------------------
                             

                            D-|---------------------------------------------------------------------------
                            A-|------0-0------------------------------------------------------------------
                            D-|-0-0-2---5~-3-0------------------------------------------------------------
                            G-|--2------------------------------------------------------------------------
                            D-|---------------------------------------------------------------------------
                            A-|--/--///-/----/------------------------------------------------------------

                            D-|---------------------------------------------------------------------------
                            A-|---------------------------0------------5-3-5----0-------------------------
                            D-|--------------0---5~-0-3-5~-5~-3-5~-5->7-----3-5~--------------------------
                            G-|-2-3-2-0-------3p2---------------------------------------------------------
                            D-|--------3-2-0--------------------------------------------------------------
                            A-|-----/------/--/--/--/------/----/------//-/-/---/-------------------------
                             
                            D-|------------------------------0--------------------------------------------
                            A-|-3-5-3-0-----0---------0-1-0-1-0-------------------------------------------
                            D-|--------5-3-5----0-3-5~----------------------------------------------------
                            G-|---------------------------------------------------------------------------
                            D-|---------------------------------------------------------------------------
                            A-|-------/-----/---/---//--/---/-/-------------------------------------------

                             
                            D-|---------------------------------------------------------------------------
                            A-|-0-3n3-5--5-3-0-3------5---------------------------------------------------
                            D-|--------3--------3-5->7----------------------------------------------------
                            G-|---------------------------------------------------------------------------
                            D-|---------------------------------------------------------------------------
                            A-|-/-/-/--//----/--/-----/---------------------------------------------------
                            <bài viết được chỉnh sửa lúc 31.01.2007 00:44:12 bởi GuitarVongCo >
                             
                            #59
                              GuitarVongCo

                              • Số bài : 96
                              • Điểm thưởng : 0
                              • Từ: 06.01.2006
                              • Trạng thái: offline
                              Lý Cây Bông - Dây Đào 08.02.2007 05:03:34 (permalink)
                              Lý Cây Bông - Dây Đào
                               

                              D-|--------3------------------------------------------------------------------
                              A-|-5-5-3-5-0-3~-0-3-3-5-3-0-3-5-3-0-3-5--------------------------------------
                              D-|---------------------------------------------------------------------------
                              G-|---------------------------------------------------------------------------
                              D-|---------------------------------------------------------------------------
                              A-|-/-/----/--/----/---/-------/-------/--------------------------------------
                               

                              D-|----3----------------------------------------------------------------------
                              A-|-5-5-5-3-3-0-3-0-3-5-3-0-3-5-3-0-3-5---------------------------------------
                              D-|--------3------------------------------------------------------------------
                              G-|---------------------------------------------------------------------------
                              D-|---------------------------------------------------------------------------
                              A-|---/----/--/-------/-------/-------/---------------------------------------

                              D-|---------------------------------------------------------------------------
                              A-|--0-3-0-3-0----------------------------------------------------------------
                              D-|-5---------5-3-0---0-------------------------------------------------------
                              G-|----------------7-7--------------------------------------------------------
                              D-|-----------------0---------------------------------------------------------
                              A-|--/-------/----/---/-------------------------------------------------------
                               

                              D-|---------------------------------------------------------------------------
                              A-|------0-3------------------------------------------------------------------
                              D-|-3-0-3---5~-7-5-7-5--------------------------------------------------------
                              G-|--5------------------------------------------------------------------------
                              D-|---------------------------------------------------------------------------
                              A-|-/-/-----/--------/--------------------------------------------------------
                               
                              D-|-----0---------------------------------------------------------------------
                              A-|--0-3-3-0------------------------------------------------------------------
                              D-|-5-------5-3-0---0---------------------------------------------------------
                              G-|--------------7-7----------------------------------------------------------
                              D-|---------------0-----------------------------------------------------------
                              A-|--/-----/----/---/---------------------------------------------------------
                               
                              D-|---------------------------------------------------------------------------
                              A-|------0-3------------------------------------------------------------------
                              D-|-3-0-3---5~----------------------------------------------------------------
                              G-|--5------------------------------------------------------------------------
                              D-|---------------------------------------------------------------------------
                              A-|-/-/-----/-----------------------------------------------------------------

                              D-|---------------------------------------------------------------------------
                              A-|---------------------------------------------------------------------------
                              D-|-------------5-3-0-3-5~----------------------------------------------------
                              G-|---------------------------------------------------------------------------
                              D-|---------------------------------------------------------------------------
                              A-|-------------/-------/-----------------------------------------------------

                              D-|-------------3-------------0-----0-----0-----------------------------------
                              A-|-5-3-5~5-3~5--0-3~-0-3~-3-3-3-0-3-3-0-3------------------------------------
                              D-|---------------------------------------------------------------------------
                              G-|---------------------------------------------------------------------------
                              D-|---------------------------------------------------------------------------
                              A-|-/---/-/-----/--/----/-----/-----/-----/-----------------------------------

                              D-|-3-0-3-0-----------0-----0-----0-------------------------------------------
                              A-|--------3-3-0-3-0-3-3-0-3-3-0-3--------------------------------------------
                              D-|---------3-----------------------------------------------------------------
                              G-|---------------------------------------------------------------------------
                              D-|---------------------------------------------------------------------------
                              A-|---/-----/--/------/-----/-----/-------------------------------------------

                              D-|-----0---------------------------------------------------------------------
                              A-|--0-3-3---0----------------------------------------------------------------
                              D-|-5---------5-3-0---0-------------------------------------------------------
                              G-|----------------7-7--------------------------------------------------------
                              D-|-----------------0---------------------------------------------------------
                              A-|--/-------/----/---/-------------------------------------------------------

                              D-|---------------------------------------------------------------------------
                              A-|------0-3------------------------------------------------------------------
                              D-|-3-0-3---5~-7-5-7-5--------------------------------------------------------
                              G-|--5------------------------------------------------------------------------
                              D-|---------------------------------------------------------------------------
                              A-|---/-----/--------/--------------------------------------------------------

                              D-|-----0---------------------------------------------------------------------
                              A-|--0-3-3-0------------------------------------------------------------------
                              D-|-5-------5-3-0---0---------------------------------------------------------
                              G-|--------------7-7----------------------------------------------------------
                              D-|---------------0-----------------------------------------------------------
                              A-|--/-----/----/---/---------------------------------------------------------

                              D-|---------------------------------------------------------------------------
                              A-|------0-3------------------------------------------------------------------
                              D-|-3-0-3---5~----------------------------------------------------------------
                              G-|--5------------------------------------------------------------------------
                              D-|---------------------------------------------------------------------------
                              A-|-/-/-----/-----------------------------------------------------------------

                              D-|-0----------00000000-------------------------------------------------------
                              A-|--3~-0--0-3~---------------------------------------------------------------
                              D-|------0--------------------------------------------------------------------
                              G-|---------------------------------------------------------------------------
                              D-|---------------------------------------------------------------------------
                              A-|-/---/--/---/--------------------------------------------------------------
                              <bài viết được chỉnh sửa lúc 08.02.2007 05:06:24 bởi GuitarVongCo >
                               
                              #60
                                Online Bookmarks Sharing: Share/Bookmark
                                Thay đổi trang: < 123456789 > | Trang 4 của 9 trang, bài viết từ 46 đến 60 trên tổng số 123 bài trong đề mục

                                Chuyển nhanh đến:

                                Thống kê hiện tại

                                Hiện đang có 0 thành viên và 2 bạn đọc.

                                Chú Giải và Quyền Lợi

                                • Bài Mới Đăng
                                • Không Có Bài Mới
                                • Bài Nổi Bật (có bài mới)
                                • Bài Nổi Bật (không bài mới)
                                • Khóa (có bài mới)
                                • Khóa (không có bài mới)
                                • Xem bài
                                • Đăng bài mới
                                • Trả lời bài
                                • Đăng bình chọn
                                • Bình Chọn
                                • Đánh giá các bài
                                • Có thể tự xóa bài
                                • Có thể tự xóa chủ đề
                                • Đánh giá bài viết

                                2000-2022 ASPPlayground.NET Forum Version 3.9