Tự Học Đàn Cải Lương Guitar - Vài Điễm Căn Bản & Và một Số Bài Bản Đàn (Có mp3)

Thay đổi trang: < 123456789 > | Trang 6 của 9 trang, bài viết từ 76 đến 90 trên tổng số 123 bài trong đề mục
Tác giả Bài
GuitarVongCo

  • Số bài : 96
  • Điểm thưởng : 0
  • Từ: 06.01.2006
  • Trạng thái: offline
Rao #2 Dây Kép của NS Chí Tâm 18.06.2007 04:18:35 (permalink)
Rao #2 Dây Kép của NS Chí Tâm


mp3 của bài này để nghe trước khi dợt
 
Rao
D-|-----------------------0-1-3~-5^----0---0----------------------------------
A-|-3ng3~3~3~3~3~-3~3~-2-2---------1-3~-1-0-----0-1---------------------------
D-|---------------------0--0----------------3-5~---0-3-5--0---0---------------
G-|-----------------------------------------------------5~-0-3----------------
D-|------------------------------------------------------------0-33333-3-3-0-3
A-|---------------------------------------------------------------------------
 

D-|---------------------------------------------5----10~8----------8-10->12---
A-|------------------------------------------5-8-10------10n~-8-10~-----------
D-|------0-------------------------5--0-5-7-8------12-------------------------
G-|-0-2-3-0-3-2h3p2-0-0-2-3---0-0-3-5~-7-----------------------------------12-
D-|------------------3-----0-3-5----------------------------------------------
A-|---------------------------------------------------------------------------
 

D-|-12-8-7--------8-----0--5-8-5----------------0-3-2-0-----------------------
A-|-------10-8~-10-10----5-------8-7-5-3~-333-3~-------1-1-3-1-0--------------
D-|------------------10~--8---8-------0-------------------------1-0-5--0---0--
G-|------------------------------------------------------------------5~-0-3---
D-|-------------------------------------------------------------------------0-
A-|---------------------------------------------------------------------------
 

D-|---------------------5--0-5--5-7-9----0----------0-5-----------------------
A-|------------------5-2-3~----------5h7-----3~3n-3~--------------------------
D-|----------5--0-5-8-0-------5-----------1-0----------5-5--------------------
G-|---0-0-3---5~-7-------------0------------------------0---------------------
D-|--3-5----------------------------------------------------------------------
A-|---------------------------------------------------------------------------
<bài viết được chỉnh sửa lúc 18.06.2007 04:45:30 bởi GuitarVongCo >
 
#76
    GuitarVongCo

    • Số bài : 96
    • Điểm thưởng : 0
    • Từ: 06.01.2006
    • Trạng thái: offline
    Vọng Cổ Dây Kép câu 5 6 có Lý con Sáo 18.06.2007 04:28:04 (permalink)


    Vọng Cổ Dây Kép câu 5 6 có Lý con Sáo Cua NS Chí Tâm

    Audio


    D-|---------5^-------------------------------------5---0-5--------------------
    A-|-----------5h6n(10)-6g5-2-5-3~-------------------7-5---3~------------------
    D-|-5----0-5--------------5------0-0-5-3~-0-5-5->8----------0-5-3-----5-------
    G-|-----0---------------------------------------------------------5~-3--------
    D-|---------------------------------------------------------------------------
    A-|16//-/--4--/----------/-/-----8-----/----/------/-12--/--/-----/---16------



    D-|---------8-5-7-8-7-5------5-8-5-5----------0-5------------------5----------
    A-|--------------------8~-5-8-------8~-7-5---5---2-5-3~---2-2-3~->5-7-5-------
    D-|-5-5->8-8----------------------8-------8-8----------5-5--------------------
    G-|----------------------------------------7------------0---------------------
    D-|---------------------------------------------------------------------------
    A-|-/------/--/-------4---/------/-/-----8-/-/---/----12-/--/---/-------------

    Xang

    D-|-5---------5-8-5-5-----5-2-5-2------------2-5------------------------------
    A-|--7~-5---5--------7-5-2-------5-2-5-3~---2---2-3~--------------------------
    D-|------0-0---8---8----0----------------5-5-----5----------------------------
    G-|---------------------------------------0-----------------------------------
    D-|---------------------------------------------------------------------------
    A-|-/--/-/--4--/--/-/--8-/--/------/----12-/-/--/-16--------------------------

    Xề

    D-|-----------0-3-5-5-2---2--------------------0------------------------------
    A-|-3n-3n-3~2--5-------5-5---------------5--0-2-3n~3~-2-----------------------
    D-|------0---5-----5-------0-0-5-3~-0-5-8-5~-----------0----------------------
    G-|---------------------------------------------------------------------------
    D-|---------------------------------------------------------------------------
    A-|-/--/--/--4-/--/-/--8---/-----/----/-12--/--/---/---16---------------------

    Xề

    D-|------1-3-1-0-----------------------------------------0----0---------------
    A-|-------------1-3-1-0---------------------------------5--0-2-3~-2-----------
    D-|-0-0----------------1-3-1-0-5--0-------------5--0-5h8--5~-------0----------
    G-|---------------------------3-5~-0-3-----0-0-3-5~-7-------------------------
    D-|-----------------------------------0-0-3-5---------------------------------
    A-|-/--/-----/------4------/---/--/---8----/----/--/---12-/--/-/---16---------

    Lý con sáo

    D-|---------2^-5^-------------------------------------------------------------
    A-|-----------5---------------------------------------------------------------
    D-|-000-0-0-------------------------------------------------------------------
    G-|---------------------------------------------------------------------------
    D-|---------------------------------------------------------------------------
    A-|---/---/---/---------------------------------------------------------------


    D-|-----------------------------0------------------0--------------------------
    A-|---------------3n-3~-3~-3~-3~-3~2-2-3~-2-2h3-7-5-3~2-----------------------
    D-|----------------------------------------5-----------0-5-3----5-------------
    G-|---------------------------------------------------------5~-3--------------
    D-|---------------------------------------------------------------------------
    A-|---------------4--/-----/----/--8-/----/-/----12-/--/----/---16------------


    D-|---------------------------------------------------------------------------
    A-|----------------------5-0------------5^-3~-2-----3~------------------------
    D-|-5-5-5-0-0-3-5~-5->7-7---5-3~-0-5-5-5-------0-0-5-0-5-3----5---------------
    G-|-----------------------------------0-------------------5~-3----------------
    D-|---------------------------------------------------------------------------
    A-|-/---/---/---4-------/--/--/----8-/-/---/--12---/-/----/---16--------------


    D-|---------------------------------------------------------------------------
    A-|-------------0-5^-3~-0-5^---------------------5^-3~-2----------------------
    D-|-5-5-5-0-3-5~-7----------7-5-1n~--1-0-5n~-5-5--------1-3-1-0-5-------------
    G-|-------------------------------------------0----------------3-5~-----------
    D-|---------------------------------------------------------------------------
    A-|-/---/---/---4-/-----/---/---8----/---/---/-12---/---/---/----16-----------


    D-|--------------5-----------5-------5-9^-7-5---0-5-2-------------------------
    A-|-----------6-5----2-2-3~-5-7n~-7-5--------7-5-----5-3~-2-3~----------------
    D-|-0-5-8-7-5-----5-5---------------------------------------------------------
    G-|--7-------8-----0----------------------------------------------------------
    D-|---------------------------------------------------------------------------

    A-|--/----/---/---4-/--/---/--8---/--/----/-12--/---/--/----16----------------

    D-|----------5-2---------------5---------5-9^-7-5---0-5-2-0-------------------
    A-|-3n-3~3~-2---5-3~---2-2-3~-5-7----7-5---------7-5-------2-3~---------------
    D-|-----------------5-5-------------------------------------0-----------------
    G-|------------------0--------------------------------------------------------
    D-|---------------------------------------------------------------------------
    A-|-/----/---/--/---4-/--/---/--8----/---/----/-12--/---/--/-16---------------
    Dứt lý con sáo

    Xề

    D-|--------1-3-1-0----------------------------------0--8-5---0------0---------
    A-|-3n-3~3~-------1-3-1-0-----------------------------5---7-5----0-2-3~-2-----
    D-|----------------------1-0-5-3---------------0-5-8-----------5~--------0----
    G-|-----------------------------5~-3-0-3-5->7-7-------------------------------
    D-|---------------------------------------------------------------------------
    A-|-/----/-----/------4----/----/----/--------8----/--/--/-12--/---/-/--16----



    D-|--------------------0--8-7-5----8-8-5--------------------------------------
    A-|------------------6--5------8~-5-----7n~-5-3~---2-2-3~-5-7^5---------------
    D-|-0-0-5--0-5-8-7-5----------------8-----------5-5---------------------------
    G-|------5~-7-------8----------------------------0----------------------------
    D-|---------------------------------------------------------------------------
    A-|/--/--/--4----/---/---/-----8----/--/---/---12-/--/---/----/---------------



    D-|------5-7-8--8-5------5-8-5---------------0--5-3-2-0-----------------------
    A-|-5-5h8------5---8~-5-8-----7n^-5-3~-----------------3~-3~------------------
    D-|-----------8-----------------------0-0-5h8------------5--0-5-5-------------
    G-|------------------------------------------------------------3--------------
    D-|---------------------------------------------------------------------------
    A-|-/----/-----/--4---/------/---/----8-/---/---/----12--/--/--/16------------

    <bài viết được chỉnh sửa lúc 18.06.2007 04:50:17 bởi GuitarVongCo >
     
    #77
      GuitarVongCo

      • Số bài : 96
      • Điểm thưởng : 0
      • Từ: 06.01.2006
      • Trạng thái: offline
      Những Hợp âm để đánh Tân Nhạc 14.09.2007 01:26:21 (permalink)
      Những Hợp âm để đánh Tân Nhạc 
      Hợp âm = nhiều gam
      Gam là 1 thế bấm gồm nhiều nốt 1 lần.
      Mổi gam dưới đây, thường dùng ngon trỏ chận lên cả ngăn đàn rồi dùng các ngón khác bấm các nốt còn lai.


      Hợp âm Rê (Dây Đào)gồm có 3 gam chính : Rê, Sol, La
      D-|--7--------5--------7------------------------------------------------------
      A-|--8--------5--------7------------------------------------------------------
      D-|--7--------5--------7------------------------------------------------------
      G-|--7-(Rê)---7--------7------------------------------------------------------
      D-|--7--------5-(sol)--9-(La)-------------------------------------------------
      A-|--7--------5--------7------------------------------------------------------
      Ví dụ điệu slow đánh như vậy (
      Nghe Audio)
      D-|----7-----7-----7-----5-----5-----7-----7-----7-----7-----5----------------
      A-|---8-8---8-8---8-8---5-5---5-5---7-7---7-7---8-8---8-8---5-5---------------

      D-|--7---7-7---7-7---7-5---5-5---5-7---7-7---7-7---7-7---7-5---5-(v.v........)

      G-|-7-----7-----7-----------------------------7-----7-------------------------

      D-|-------------------5-----5-----7-----7-----------------5-----5-------------

      A-|-/--/--/--/--/--/--/--/--/--/--/--/--/--/--/--/--/--/--/--/--/-------------


      Hơp âm Sol (Dây Kép)gồm có 3 gam chính : Sol, Đô, Rê

      D-|--5-------5------10--------------------------------------------------------
      A-|--5-------6------9---------------------------------------------------------
      D-|--5-------5------7---------------------------------------------------------
      G-|--7-------5-(đô)-7-(Rê7)---------------------------------------------------
      D-|--5-(sol)-5------7---------------------------------------------------------
      A-|--5------------------------------------------------------------------------

      Ví dụ điệu slow đánh như vậy (
      Nghe Audio)

      D-|----5-----5-----5-----5-----10-----10--------------------------------------

      A-|---5-5---5-5---6-6---6-6---9--9---9--9-------------------------------------

      D-|--5---5-5---5-5---5-5---5-7----7-7----7------------------------------------

      G-|-------------5-----5-----7------7------------------------------------------

      D-|-5-----5-------------------------------5-----------------------------------

      A-|-/--/--/--/--/--/--/--/--/--/---/--/---/-----------------------------------


      Chú ý: Mấy hợp âm dưới đây có thế bấm tương tự như hơp âm Sol.

      Hợp âm La (Dây Xề)gồm có 3 gam chính : La, Rê, Mi

      D-|--7-------7------12--------------------------------------------------------
      A-|--7-------8------11--------------------------------------------------------
      D-|--7-------7------9---------------------------------------------------------
      G-|--9-------7-(Rê)-9-(Mi7)---------------------------------------------------
      D-|--7-(La)--7------9---------------------------------------------------------
      A-|--7------------------------------------------------------------------------

      Hợp âm Rê còn có vị trí khác nữa:
      Hợp âm Rê (Dây Đào)gồm có 3 gam chính : Rê, Sol, La

      D-|--0-------0-------5--------------------------------------------------------
      A-|--0-------1-------4--------------------------------------------------------
      D-|--0-------0-------2--------------------------------------------------------
      G-|--2-------0-------2-(La7)--------------------------------------------------
      D-|--0-(Rê)--0-(Sol)-2--------------------------------------------------------
      A-|--0------------------------------------------------------------------------


       
      #78
        rober

        • Số bài : 1
        • Điểm thưởng : 0
        • Từ: 03.11.2007
        • Trạng thái: offline
        RE: Tự Học Đàn Cải Lương Guitar - Vài Điễm Căn Bản & Và một Số Bài Bản Đàn (Có mp3) 04.11.2007 22:48:32 (permalink)
        Cảm ơn bạn Guitarvongco đã gởi những bài hướng dẫn hữu ích cho anh em. Tôi rất thích học đàn vọng cổ và đang tự học đàn. Bạn làm ơn can những nốt nhạc của 6 câu và gởi qua email cho tôi nha, vì tôi không rành đọc tab. Hơn nữa, tab không có dấu ngưng, nhanh, hoặc chậm như trên khung nhạc cho nên người tự học đàn như tôi không biết phải đàn nhanh chậm như thế nào. Email của tôi là roberco30@yahoo.com. Cảm ơn bạn nhiều.
         
        #79
          GuitarVongCo

          • Số bài : 96
          • Điểm thưởng : 0
          • Từ: 06.01.2006
          • Trạng thái: offline
          RE: Tự Học Đàn Cải Lương Guitar - Vài Điễm Căn Bản & Và một Số Bài Bản Đàn (Có mp3) 06.11.2007 05:03:26 (permalink)
          Chào bạn ,
           
          Sorry là mình chỉ có bản ký âm viết theo TAB mà thôi. Nhưng trên TAB mình có ghi nhịp. Từng gạch / là 1 nhịp (beat) tương đương với tân nhạc. Trong 1 nhịp thì tùy bạn . Hơn nữa mổi bản đờn mình có audio kèm theo để bạn có thể nghe và đàn theo. Thật tình mà nói là nếu mình ghi được theo ký âm 5 dòng kẽ thì chắc chắn bạn cũng khó đàn được vì đàn cải lương còn nhấn, rung. Hơn bạn sẽ không biết bấm nốt ngăn & dây nào vì trên cây ghita 1 nốt có thể nằm nhiều chổ khác nhau.
           
          Mình ghi TAB là ghi riêng cho cây ghita. Nốt nào cho dây nào & ngăn nào rất rỏ và dể lắm. Bạn cứ thử đi là biết liền. Bạn tập 1 thời gian thì sẽ quen dần rồi tập rất dể dàng.
           
          Trong cải lương, cùng 1 bản đàn, bạn đàn khác 1 chút cũng không sao cả miển dứt khuôn đúng nhịp thì được rồi.
           
          Chúc bạn thành công.
           
          #80
            GuitarVongCo

            • Số bài : 96
            • Điểm thưởng : 0
            • Từ: 06.01.2006
            • Trạng thái: offline
            Sương Chiều Qua Tú Anh 29.11.2007 01:53:43 (permalink)

            Sương Chiều Qua Tú Anh


            Ký âm : GuitarVongCo

            Audio    : Ns Văn Hải




            Rao
            D-|-14-17--17-14-17-12-14-10-12-9--12----------12-10p9--------------9-9-2-----
            A-|------14------------------------------10~-12----------9--7-5~-7-9-7-2-7----
            D-|----------------------------------------------------9----------------------
            G-|---------------------------------------------------------------------------
            D-|---------------------------------------------------------------------------
            G-|---------------------------------------------------------------------------
            Chú ý nốt 3n(5)g = bấm ngăn 3 nhấn đến ngăn 5 đánh lên đánh xuống nhanh & giảm
            từ từ.

            D-|-5---(tremolo picking)-------------------------------------2-5-5--5--------
            A-|--5~-3n(5)g-------------2h3p2-----------------------0-3-2-5---5------------
            D-|-----(đánh lên xuống---------4->7-7->9->-2h3p2-0-2-5------------5----------
            G-|------nhanh )---------------------------------4------------------0---------
            D-|---------------------------------------------------------------------SL----
            G-|---------------------------------------------------------------------------

            C
            âu 1
            D-|----5-2----------5---------2-----------------------------------------------
            A-|-------5-2-2--2-2--0h2-2-5-------------------------------------------------
            D-|------------------5---5----------------------------------------------------
            G-|------------4--4-----------------------------------------------------------
            D-|--------SL----------------SL-----------------------------------------------
            G-|----/-//-//-/-/-/-/--/-/---/-----------------------------------------------
            C
            âu 2
            D-|--5-2-5-4-2-5~-5-4-2-4-2-4-2-4-2-0-------------------0---------------------
            A-|-2---2----------------------------2-3--3--2-3-2-0-0-2--0-----0-2-----------
            D-|-------------------------------------------------5----2-4-2-4--------------
            G-|---------------------------------------------------------------------------
            D-|---------------------------------SL---------------------------SL-----------
            G-|-/--/-/---/---/----/-------/------//------/------/--/-/-/---/--/-----------
            C
            âu 3
            D-|--------------------------------------------------/-/----------------------
            A-|---------------------------------------------------------------------------
            D-|--------------0------------------------------------------------------------
            G-|-4h5-4-2-0-2-4-4-2-0-2-4-0-4-0-4-0-4-0-2---2h4-2-4-4--SL-------------------
            D-|--------------------------------------SL-------------0-2-------------------
            G-|/----/-------/-/-------/-------/-------/-//----/-/4/4/-/-------------------
            C
            âu 4
            D-|---------------------------------------------------------------------------
            A-|-----------0h2-0-2-0-2-5-0----0-3-2-0-2-5-0-0-2----------------------------
            D-|---0h2-2-5~--------------------------------5----0-------------0-2----------
            G-|--4---4----------------------------------------4-4-2-0-2-4-0-4-------------
            D-|------------------------SL-------------------------------------SL----------
            G-|/-/--/-/-/---/---/-------/--------/-------/-/--/-/-------/---/--/----------
            C
            âu 5
            D-|---------------------------------------------------------------------------
            A-|---------------------------------------------------------------------------
            D-|--5-2-5-4-2-5-2-5-2-0-----0-2-2->4-4-4->7-7-4-0h2-0-2-0-0-2----------------
            G-|-4---4---------------4-0-4-----------------------------4-------------------
            D-|---------------------------SL----------------------------SL----------------
            G-|-/--/-/---/---/------/---/--/----/--/---/--/-/----/----/--/----------------
            C
            âu 6
            D-|--5-2-5-4-2-5^-2-5-2-0-----2-2->4-4-4-7^4^7^4^7^4^-2-2-0---2---------------
            A-|-2---2----------------2-2-5-------------------------5---2-5----------------
            D-|-----------------------5---------------------------------------------------
            G-|---------------------------------------------------------------------------
            D-|--------------------------SL------------------------------SL---------------
            G-|-/--/-/---/----/------/-/--/----/---/---/---/---/---/---/--/---------------
            C
            âu 7
            D-|--0-2-5^4^2^2^2^-----------------------------------------------------------
            A-|-2---2---------5->7-7-7-7-5h7-5-7-5-3-2--2-2-2-----------------------------
            D-|---------------------------------------------------------------------------
            G-|------------------------------------------4-4------------------------------
            D-|---------------------SL----------------------SL----------------------------
            G-|-/--/-/---/---//----/-/-/-----/---/---/-/-//-/-----------------------------
            C
            âu 8
            D-|---------------0-----------------------------------------------------------
            A-|-2-2-3-2-3-2-0---0-----0-2-------------------------------------------------
            D-|--------------5-2-4-2-4----------------------------------------------------
            G-|---------------------------------------------------------------------------
            D-|------------------------SL-------------------------------------------------
            G-|/--/---/------/-/-/---/--/-------------------------------------------------
            D-|-0-5-2-0-2-5-2-5-2-0-------------------------------------------------------
            A-|--------------------2-3-2-0------------------------------------------------
            D-|---------------------------5-4-2-4-0-4-2-0---------------------------------
            G-|------------------------------------------4-5-4-2-0-2-4--------------------
            D-|-----------------------------------------------------SL--------------------
            G-|-----/-------/------/------/-------/------/-------/---/--------------------
            C
            âu 9
            D-|---------------------------------/----/------5-2-5-2-0---------------------
            A-|------------------------------------------------------2--------------------
            D-|-0h2-0-----------0---------0--SL-------------------------------------------
            G-|------5-4-2-0-2-4-4-2-0-2-4-2----------------------------------------------
            D-|-----------------------------5-2--0h2-2^2^2^---------SL--------------------
            G-|/----/--/-------/-/-------/-/--/-4--/4----/-/--/------/--------------------
            C
            âu 10
            D-|------------2-5-2-5-2-0---------2--5-2-5-4-2-5-----------------------------
            A-|-0-0-2-0-2-5-----------2-0---2-5--2---2-------5-3-2-0-2-0-2-5-0------------
            D-|--5-----------------------5------------------------------------------------
            G-|---------------------------------------------------------------------------
            D-|-------------------------------SL----------------------------SL------------
            G-|--/--/---/--/---/------/-----/--/-/--/-/---/--/---/---/-------/------------
            C
            âu 11
            D-|---------------------------------------------------------------------------
            A-|---0h2-0-2-0-2-5-0-0-3-2-0-2-5-0-2-0---------------------222-3-2-0---------
            D-|-5~-------------------------------4-2--0h2-5-4-2-2-2--------------5--------
            G-|--------------------------------------4---4--------------------------------
            D-|------------------------------------SL---------------------------SL--------
            G-|-/---/---/-------/-----/-------/--/-/-/--/-/---/---//------/------/--------
            C
            âu 12
            D-|-0-------------------0-----------------------------------------------------
            A-|---0-----0-2--3h2-0-2-2--0h2-0-2-5-0-2-0-0-2-------------------------------
            D-|--2-4-2-4---------------5---------------5------------0-2-------------------
            G-|--------------------------------------------4-0-4-0-4----------------------
            D-|---------------------SL--------------------SL------------------------------
            G-|--/-/---/--/-/--/---/-/-/--/---/---/-/-/-/--/-/-/---/--/-------------------
            Qua
            Anh
            C
            âu 1
            D-|--------------------------2-5-4-2-5-2-5-2-0--------------------------------
            A-|------------3-2-0--------------------------2-------------------------------
            D-|-----------------5-4-2-2-2-------------------------------------------------
            G-|---------------------------------------------------------------------------
            D-|--------------------SL--------------------SL-------------------------------
            G-|---------/----/--/---///-//-----/---/---/--/-------------------------------
            C
            âu 2
            D-|------------------------------------0h2-0-------------0--------------------
            A-|-5-4-2-5-2-5-2-5----------0--------------3-2-3-2-0-0h2-0-2-----------------
            D-|----------------2-22-4-2-4-2-222-2-2--------------5-------5----------------
            G-|---------------------------------------------------------------------------
            D-|--------------------------SL-----------------------------SL----------------
            G-|-----/---/---/--//---/---/-/---/---/----/--/------/--/-/--/----------------
            C
            âu 3
            D-|-----------------5^4^2-2-22222-2-5-2-5-2-0-------2-------------------------
            A-|------0-2---------------------------------2-0-2-5--------------------------
            D-|-4p2-5---5-5->7-5----------------------------5-----------------------------
            G-|---------------------------------------------------------------------------
            D-|--------------------SL--------------------------SL-------------------------
            G-|/--/--/--/-/----//---//-/--/---/---/------/---/--/-------------------------
            C
            âu 4
            D-|-5-4-2-5-2-5-2----------------------------------0--------------------------
            A-|--------------5-2-2-2-2--5^-2-3-2-0-----0-2--0h2-3-2-0---------------------
            D-|-----------------------------------5-2-4---5~------------------------------
            G-|-------------------4-4-----------------------------------------------------
            D-|----------------------SL----------------------------SL---------------------
            G-|-----/---/---/--//-//-/-----/------/---/--//---/-/---/---------------------
            C
            âu 5
            D-|-------------------------------------------------2-------------------------
            A-|-0-0-0-0-2-0----------------0-0-2-0-2-0------------------------------------
            D-|------------5->4-2-0-2-0-2-5-----------5->4-2-2-2--------------------------
            G-|--2-2----------------------------------------------------------------------
            D-|---------------------------SL-------------------SL-------------------------
            G-|/-//-/-----/-----/---/------//----/---/-----///-//-------------------------
            C
            âu 6
            D-|-5-4-2-5-4-2-5-2----------------------------------------0h2-0--------------
            A-|----------------5-2-5-4-2-5-2-5-2-5-----------0--------------3-2-----------
            D-|-----------------------------------2--22-4-2-4-2-222-2-2-------------------
            G-|---------------------------------------------------------------------------
            D-|----------------------------------SL--------------------------SL-----------
            G-|-----/-----/---/--/-----/---/---/--/-/---/---/-/---/---/----/--/-----------
            C
            âu 7
            D-|----------0-------------2-------5-4-2-2^2^---------------------------------
            A-|-3-2-0-0h2-0-2---------2-------------2-2-2---------------------------------
            D-|------5-------5-222-2-2-------------------2----------2---------------------
            G-|----------------------------------------------------4----------------------
            D-|------------------------SL-------------------222-2-2-SL--------------------
            G-|------/--/-/--//--/---/-/-----------/-/-/-/-/--/---/-/---------------------
            C
            âu 8
            D-|---------------------------------------------------------------------------
            A-|---------------------------------------------------------------------------
            D-|-5-4-2-5-2-2----------0h2-0----0-------------------------------------------
            G-|----------4-4--------------5-4--4-2-0-2-4-0-2-4-0-2-7->5-4-----------------
            D-|-------------2-2^2^2^2^-----SL-----------------------------SL--------------
            G-|-----/---/-/-/---/---/----/--/--/-------/---/---//-/---/---/---------------
            C
            âu 9
            D-|---------------------------------------------------------------------------
            A-|---------------------------------------------------------------------------
            D-|-0------------------5-5-2-2-5-5-0-0-0h2-2-0--------------------------------
            G-|--4-2-0-2-4-0-2-4-0----------------4---4---4-------------------------------
            D-|-------------------------SL----------------SL------------------------------
            G-|--/-------/---/---//--//--//-/--/-//--/-/--/-------------------------------
            C
            âu 10
            D-|---------------------------------------------------------------------------
            A-|---------------------------------------------------------------------------
            D-|------------0-2-5-0-0h2-0-------0---------0--------------------------------
            G-|-2h4p2-0-2-4-------------5-4-4-2-4-2-0-0-2-4-2-0---------------------------
            D-|--------------------------SL------------------SL---------------------------
            G-|-------/---/--/---/-/---//-/-/-/-/---/-/-/-/---/---------------------------
            <bài viết được chỉnh sửa lúc 25.01.2008 12:51:20 bởi GuitarVongCo >
             
            #81
              nguyenquan

              • Số bài : 1
              • Điểm thưởng : 0
              • Từ: 29.11.2007
              • Trạng thái: offline
              RE: Tự Học Đàn Cải Lương Guitar - Vài Điễm Căn Bản & Và một Số Bài Bản Đàn (Có mp3) 30.11.2007 14:47:35 (permalink)
              chào anh GuitarVongCo anh có thể giải thích thêm về các ký hiệu trên tab đàn được ko, thật sự do trước đây em học đàn bằng cách truyền tay nên giừo nhìn các ký hiệu ko hiểu nhiều lắm, anh có thể giải thích thêm hết các ký hiệu ko?
               

              D-|--------0-4-4h7-9-7-9-7-----7-0-7-10-12-10--12-9------0--------------------
              A-|-5---0-5---------------9-0-9--------------------12-9-0---------5-----------
              D-|----0-------------------------------------12-----------5~-3-0h3------------
              G-|---------------------------------------------------------------------------
              D-|---------------------------------------------------------------------------
              A-|-/1//--4--/-----/-----/--8--/---------/------/--12---/-/----/--16----------
               
              1) nhìn trên các số thấy đánh dấu từ 0 đến 15 là sao?
              2) nốt nào sẽ được đàn trước và thứ tự đọc nốt thế nào?
               
              thanks anh rất nhiều


               
              #82
                GuitarVongCo

                • Số bài : 96
                • Điểm thưởng : 0
                • Từ: 06.01.2006
                • Trạng thái: offline
                RE: Tự Học Đàn Cải Lương Guitar - Vài Điễm Căn Bản & Và một Số Bài Bản Đàn (Có mp3) 01.12.2007 01:35:23 (permalink)

                chào anh GuitarVongCo anh có thể giải thích thêm về các ký hiệu trên tab đàn được ko, thật sự do trước đây em học đàn bằng cách truyền tay nên giừo nhìn các ký hiệu ko hiểu nhiều lắm, anh có thể giải thích thêm hết các ký hiệu ko?


                1 D-|--------0-4-4h7-9-7-9-7-----7-0-7-10-12-10--12-9------0--------------------
                2 A-|-5---0-5---------------9-0-9--------------------12-9-0---------5-----------
                3 D-|----0-------------------------------------12-----------5~-3-0h3------------
                4 G-|---------------------------------------------------------------------------
                5 D-|---------------------------------------------------------------------------
                6 A-|-/1//--4--/-----/-----/--8--/---------/------/--12---/-/----/--16----------


                1) nhìn trên các số thấy đánh dấu từ 0 đến 15 là sao?
                2) nốt nào sẽ được đàn trước và thứ tự đọc nốt thế nào?

                thanks anh rất nhiều

                 
                Bạn đọc trang đầu chắc sẽ hiểu nhưng mình giải thích ở đây :
                Cây đàn guitar có 6 dây. Mổi dòng kẻ trên ký âm là mổi dây. Theo thứ tự từ trên xuống là dây cao nhất (nhỏ nhất) đến dây thấp nhất (lớn nhất). Thường thường dây thấp nhất không đàn cho nên mình ghi : / & số như dưới đây là để ghi nhịp :
                A-|-/1//--4--/-----/-----/--8--/---------/------/--12---/-/----/--16----------
                 
                Còn đánh nốt thì đọc từ trái sang phải - nốt nào trước đánh trước.
                Theo thứ tự thì bạn sẽ đánh nốt đầu tiên là dây số 2 bấm ngăn 5. Nghỉ 2 nhịp con (1/). Rồi đánh dây số 3 không bấm (số 0 là ngăn 0 - không bấm). Rồi dây số 2 không bấm. Kế đến dây số 2 bấm ở ngăn 5. Tương tự như vậy cho các nốt kế tiếp....
                 
                Những nốt như 4h7 & 0h3 là gẩy nốt đầu và giử rồi bấm nốt sau nhưng không gẩy.
                 
                Bạn nhớ nghiêng cứu phần giải thích ở trang đầu.
                 
                Chúc bạn thành công.
                 
                #83
                  ankhang1997

                  • Số bài : 1
                  • Điểm thưởng : 0
                  • Từ: 10.12.2007
                  • Trạng thái: offline
                  xin các anh Vộng cổ chỉ giúp 11.12.2007 17:47:13 (permalink)
                  anh có hình ảnh chỉ cách học đàn không cho em xin
                   
                  #84
                    GuitarVongCo

                    • Số bài : 96
                    • Điểm thưởng : 0
                    • Từ: 06.01.2006
                    • Trạng thái: offline
                    RE: xin các anh Vộng cổ chỉ giúp 12.12.2007 23:12:04 (permalink)
                    Mời bạn vào đây để tham khảo thêm :
                    http://www.vnhoathinhdon.net/giangtuyen/forum/viewforum.php?f=19
                     
                    Trong này có sách, hình ảnh chỉ dẩn để học đàn ghita cổ.

                    Chúc bạn thành công.
                    <bài viết được chỉnh sửa lúc 12.12.2007 23:13:49 bởi GuitarVongCo >
                     
                    #85
                      chigocong

                      • Số bài : 5
                      • Điểm thưởng : 0
                      • Từ: 13.12.2007
                      • Trạng thái: offline
                      Cảm ơn 23.12.2007 16:33:29 (permalink)
                      Chân thành cảm ơn GuitarVongCo . Chúc anh luôn dời dào sức khoẻ và luôn là người hạnh phúc .
                       
                      #86
                        lethanhdu15

                        • Số bài : 4
                        • Điểm thưởng : 0
                        • Từ: 09.01.2008
                        • Trạng thái: offline
                        RE: Tự Học Đàn Cải Lương Guitar - Vài Điễm Căn Bản & Và một Số Bài Bản Đàn (Có mp3) 11.01.2008 21:56:11 (permalink)
                        em da tham gia chuong trinh, biet nhieu ve nhuwng bai dan nay nhuwng day la lan dau tien e gui mail cho cac anh.khong biet co ai giup do minh k he ta?
                         
                        #87
                          GuitarVongCo

                          • Số bài : 96
                          • Điểm thưởng : 0
                          • Từ: 06.01.2006
                          • Trạng thái: offline
                          RE: Tự Học Đàn Cải Lương Guitar - Vài Điễm Căn Bản & Và một Số Bài Bản Đàn (Có mp3) 11.01.2008 23:50:52 (permalink)
                          Mình sẳn sàng giúp bạn theo khả năng của mình.
                           
                          #88
                            lethanhdu15

                            • Số bài : 4
                            • Điểm thưởng : 0
                            • Từ: 09.01.2008
                            • Trạng thái: offline
                            RE: Tự Học Đàn Cải Lương Guitar - Vài Điễm Căn Bản & Và một Số Bài Bản Đàn (Có mp3) 19.01.2008 18:33:10 (permalink)
                            la a noi do.a lam on cho e xin ky am cua bai kim tien ban duoc k a.vong co it co bai nao hat som qua.em muon tap bai nay dau tien ha.co audio cang good.cam on a truoc nha
                             
                            #89
                              GuitarVongCo

                              • Số bài : 96
                              • Điểm thưởng : 0
                              • Từ: 06.01.2006
                              • Trạng thái: offline
                              Kim Tiền Bản 20.01.2008 06:07:53 (permalink)

                              Kim Tiền Bản
                               
                              Ký Âm : GuitarVongCo
                              Audio    : Ns Văn Hải
                               
                              Rao
                              D-|---19-17--------17-19--19-17-----------14-17-12--12-9-12-----9-12-7-0-7-5--
                              A-|--------19-17-19------------19-17-15-17-----------------10-12------0-----7-
                              D-|-19------------------19------------------------12--------------------------
                              G-|---------------------------------------------------------------------------
                              D-|---------------------------------------------------------------------------
                              G-|---------------------------------------------------------------------------
                               

                              D-|-0-5-0-----0---------------------------------------------------------------
                              A-|--3---5---5----------------------------------------------------------------
                              D-|----5----------------------------------------------------------------------
                              G-|-------7-------------------------------------------------------------------
                              D-|--------0---SL-------------------------------------------------------------
                              G-|---------------------------------------------------------------------------

                              Câu 1

                              D-|---------------0-5-7-5-7-5--0-0-5-2-0-2-5-2-0------------------------------
                              A-|------------7-7-----------7--0-------0-------2-----------------------------
                              D-|-----------7----------7----------------------------------------------------
                              G-|---------------------------------------------------------------------------
                              D-|--------------------------SL-----------------SL----------------------------
                              G-|-///4-//---/8-/----/---/-12--/----/---/------16----------------------------

                              Câu 2

                              D-|-0-5-2-0-2-5-0-5-2-0-7-5----0---5-5-0--7-5-5-5--0h2-5----------------------
                              A-|------------------------7-5--0-3-----5----7-5-3------5-5-------------------
                              D-|---------------------------7-----5--------------------0--------------------
                              G-|---------------------------------------------------------------------------
                              D-|----------------------------------------------SL---------SL----------------
                              G-|-----/-------/-------/-----4-/--/-/--8--/-/-/-12--/--/-/-16----------------

                              Câu 3

                              D-|---5-5---0-5----------------0-5-7-5-7-5--0-0-5-2-0-2-5-2-0-----------------
                              A-|--5---5---0-2-0-2-0-2-5-7-7------------7--0-------0-------2----------------
                              D-|-5--5--------------------7---------7---------------------------------------
                              G-|---------------------------------------------------------------------------
                              D-|---------------------------------------SL-----------------SL---------------
                              G-|-/-/-/-4--/-/---/-------8-/-----/---/--12-/----/---/------16---------------

                              Câu 4

                              D-|-0-5-2-0-2-5-0-5-2-0-7-5----0---5-5-0-777-5-0-5-----5----------------------
                              A-|------------------------7-5--0-3-----5-----7-5-3-5-7-5-5-------------------
                              D-|---------------------------7-----5--------------------0--------------------
                              G-|---------------------------------------------------------------------------
                              D-|-----------------------------------------------SL--------SL----------------
                              G-|-----/-------/-------/-----4-/--/-/--8--/--/-/-12--/-/-/-16----------------

                              Câu 5

                              D-|---------------------------------------------------------------------------
                              A-|----------------------------------------------SL---------------------------
                              D-|--------------0-----------0-------------0------------0---------------------
                              G-|-9-7-7-9-7-5-4-4-2-0-2-4-4-2-5-4-2-0-2-4-2-4-2-0--2---2-2------------------
                              D-|----0---0---------------0-----------------------2---0--0--SL---------------
                              G-|----/--/-/---4-/-------/-/-8---/-------/-/-----12---/-/-/-16---------------

                              Câu 6

                              D-|---------------------------------------------------------------------------
                              A-|-----------------------------------------------------SL--------------------
                              D-|----------0-----------------------------------0-----------0----------------
                              G-|-4-2-0-2-4-2-4-2-0-----0-2-4-4-2-0-5-4-2-0-2-4-2-4-2-0--2--2-2-------------
                              D-|------------------2-0-2-----2-------------------------2--0--0--SL----------
                              G-|-----/---/-/------4---/----/-/---8---/-------/-/-----12--/-/-/-16----------

                              Câu 7

                              D-|-000-5-2-5-2-0-----0---5---------------0-5-7-5-7-5--0-0-5-2-0-2-5-2-0------
                              A-|--------------2-0-2-0-0-2-0-2-0-2-5-7-7-----------7--0-------0-------2-----
                              D-|---------------------7---------------7--------7----------------------------
                              G-|---------------------------------------------------------------------------
                              D-|--------------------------------------------------SL-----------------SL----
                              G-|---/---/------/-----4-/-/---/-------8-/----/---/--12-/----/---/------16----

                              Câu 8

                              D-|-0-5-2-0-2-5-0-5-2-0-7-5----0---5-5-0-7-5-5-5--5---------------------------
                              A-|------------------------7-5--0-3-----5---7-5-3----5------------------------
                              D-|---------------------------7-----5--------------5--------------------------
                              G-|---------------------------------------------------------------------------
                              D-|---------------------------------------------SL-SL----SL-------------------
                              G-|-----/-------/-------/-----4-/--/-/--8-/-/-/-12-/-/-/-16-------------------
                              <bài viết được chỉnh sửa lúc 23.01.2008 02:38:32 bởi GuitarVongCo >
                               
                              #90
                                Online Bookmarks Sharing: Share/Bookmark
                                Thay đổi trang: < 123456789 > | Trang 6 của 9 trang, bài viết từ 76 đến 90 trên tổng số 123 bài trong đề mục

                                Chuyển nhanh đến:

                                Thống kê hiện tại

                                Hiện đang có 0 thành viên và 5 bạn đọc.

                                Chú Giải và Quyền Lợi

                                • Bài Mới Đăng
                                • Không Có Bài Mới
                                • Bài Nổi Bật (có bài mới)
                                • Bài Nổi Bật (không bài mới)
                                • Khóa (có bài mới)
                                • Khóa (không có bài mới)
                                • Xem bài
                                • Đăng bài mới
                                • Trả lời bài
                                • Đăng bình chọn
                                • Bình Chọn
                                • Đánh giá các bài
                                • Có thể tự xóa bài
                                • Có thể tự xóa chủ đề
                                • Đánh giá bài viết

                                2000-2022 ASPPlayground.NET Forum Version 3.9