Tự Học Đàn Cải Lương Guitar - Vài Điễm Căn Bản & Và một Số Bài Bản Đàn (Có mp3)

Thay đổi trang: 12345 > | Trang 1 của 5 trang, bài viết từ 1 đến 30 trên tổng số 123 bài trong đề mục
Tác giả Bài
GuitarVongCo
  • Số bài : 96
  • Điểm thưởng : 0
  • Từ: 06.01.2006
Tự Học Đàn Cải Lương Guitar - Vài Điễm Căn Bản & Và một Số Bài Bản Đàn (Có mp3) - 06.01.2006 07:41:25
Tự Học Đàn Cải Lương Guitar - Vài Điễm Căn Bản

Vài lời nói đầu :

Vì cải lương là một nghệ thuật , mục đích của bài này là để bảo tồn & phát triển văn hóa VN nói chung, cổ nhạc nói riêng. Với một số bài dưới đây, tôi hy vọng nó sẽ làm thỏa mản cho những người đam mê đàn cổ nhạc. Và niềm đam mê ấy có thể giúp người học đàn sẽ trở thành những thú vui trong đời sống hằng ngày hoặc sẽ trở thành những tay đàn chuyên nghiệp. Và cứ thế lưu truyền từ thế hệ này sang thế hệ khác.

Học đàn cải lương như học 1 ngôn ngữ khác. Trước hết, cứ học thuộc lòng. Rồi lập đi lập lại nhiều lần & dần dần trở thành thoái quen tự nhiên. Sau khi đàn vững rồi thì lúc này có thể sáng tạo cho mình cách đàn riêng - chỉ cần sữa đổi 1 vài nốt trong 1 khuôn cũng thấy khác nhiều lắm .

Chủng tộc: Không phân biệt - Bắc, Trung, Nam, Mỹ, Pháp, Anh, Nhật, Úc, ...

Dụng cụ :

1 Cây đàn Guitar với ngăn đàn khoét lỏm khoảng 1/4 vòng tròn.


Còn nếu muốn, quí vị có thể thử đàn trước khi khoét lỏm coi thử mình thích hay không cũng đươc.
Khoét lỏm thì đàn chính xác và mùi hơn.

Dây số, Cở & Cách lên dây đàn (Có mp3 ở đây để lên dây đàn nếu cần)
1 008 D-Rê-----------------------------------
2 008 A-La---------------5------------------- Nốt này = dây trên kế không bấm
3 012 D-Rề-----------------7----------------- Tương tự như trên
4 022 G-Sol----------------7----------------- .
5 030 D-Rệ---------------5------------------- .
6 042 A-Lạ---------------5------------------- .
Nên dùng những dây số trên đây nhưng không nhất định là những số này .

Tai sao cở dây số 2 = dây số 1? Vì dây số 2 nhấn nhiều. Cho nên cần dây mềm cho dể nhấn.
Nếu dấy số 3 cở 012 hơi mềm đối với quí vị thì nên xài dây cở 014.
Nói chung, dây nào quí vị nhấn cãm thấy cứng quá thì nên đổi dây nhỏ hơn. Hoặc mềm quá thì đổi dây lớn hơn.

CHÚ Ý : Phải lên dây đàn như trên mới có thể đàn được. Vì TAB viết theo cách lên dây đàn này.
Cách lên dây này gọi là dây lai. Dây lai đang được xử dụng rộng rãi vì quí vị có thể đàn đươc nhiều tông (đào, kép, và kép cao) mà không cần phải lên dây kiểu khác.

1 Metronome để giữ nhịp cho đúng. Lúc đầu tập cho quen thuộc nốt nhạc rồi tập theo nhịp cũng đươc.

1 Guitar amplifier nếu xài đàn điện.

Mấy bản đàn dưới đây viết theo TAB có phân nhịp theo 16 nhịp con (1 nhịp con = 1 nhịp của tân nhạc) . Nhạc viết theo TAB vì nhìn TAB rất dể nhớ & ghi rỏ nốt nào trên cần đàn của cây guitar cho nên ai cũng có thể đọc & học được. Đàn thì rất dể chỉ cần luyện tập nhiều thì đàn sẽ nghe hay & mùi.


Sau đây là 1 vài điểm căn bản của 6 câu vọng cổ.

Cải lương có 5 nốt nhạc (ngũ cung - hò, xự, xang, xê, cống) và 1 nốt phụ nữa là nốt Oan . & 3 tông (dây) hay đàn nhất :
Đó là dây Đào (Rề), dây Kép (Sol), & dây kép cao (La) - cũng thường gọi dây Xề.

Thường thường dây đào cho người nữ hát, kép cho người nam. Nếu người nam & nữ hát chung thì người đàn có thể bắt đầu dây đào sang kép hoặc ngược lại.

Nốt của Dây Đào (Rề)

Hò : D Rề
Xự : F> Fa Nhấn F rồi giãm & giữ - Cao hơn F (natural) và thấp hơn F#.
Xang : G Sol - Rung
Xê : A La
Cống: Bb> Bấm Sib rồi Nhấn - Cao hơn B flat và thấp hơn B (natural). Cống cũng có thể B.
Oan : C - Rung

Nốt của Dây Kép (Sol)

Hò : G Sol
Xự : B> Si Nhấn A# rồi giãm & giữ - Cao hơn A# và thấp hơn B.
Xang : C Dô - Rung
Xê : D Rê
Cống: D#> Bấm D# rồi Nhấn - Cao hơn D# flat và thấp hơn E. Cống cũng có thể E.
Oan : A# - Rung

Dây Kép cao (La) thì tăng lên 2 ngăn từ dây Kép (Sol). Dây này thường gọi dây Xề.

Nhạc viết theo Tab. Cho nên ai cũng có thể học đàn được.

Ký Hiệu:

n : Nhấn (thường nhấn nhẹ tùy hứng có thể tới 2 ngăn)
n(m): Nhấn đến ngăn m
g(m): Giãm xuống ngăn m
~ : Rung
h : Hammer on - đàn & giữ nốt thấp rồi bấm nốt cao.
p : Pull off - Đàn nốt cao nhã ra đồng thời bấm nốt thấp.
^ : Đàn xong rồi làm tắc tiếng liền. Như âm tích.
-> : Đàn nốt đầu kéo đến nốt sau

b : Búng

D--------0-------------------------- Dây Cao Nhất - đàn dây này không bấm
A---------------7------------------- Đàn ngăn 7 cua dây này
D----3n----------------------------- Đàn ngăn 3 theo ký hiệu trên
G-----------------------------------
D-----------------------------------
A----------------------------------- Dây Thấp Nhất (Dây này hầu hết không đàn cho nên tôi dùng dây này để ghi nhịp)

Nốt trên cần đàn

Gọi dây 1 là dây cao nhất.

Như vậy dây 1,3,5 nốt giống nhau

Công Thức: HÒ qua XỰ cách 2 ngăn, XỰ qua XANG cách 1 ngăn, XANG qua XÊ cách 1 ngăn, XÊ qua CỐNG cách 1 ngăn hoặc ngăn kế tiếp có nhấn, XÊ qua oan cách 2 ngăn, Oan qua HÒ cách 1 ngăn & cứ như thế đi mãi cho đến hết cần đàn. Và 1 vài nốt XỰ (XỰ thăng) đặc biệt như dưới đây.

Dây 1=RE (ký âm của tân nhạc=D), 2=LA (A), 3=RE (D), 4=SOL (G), 5=RE (D), 6=LA (A)
Hò của dây đào là nốt RE, Hò của dây kép là nốt SOL, Hò của dây kép cao là LA.

Dựa theo công thức trên bạn có thế biết hết tất cã nốt trên cần đàn.

Nốt Dây đào
Về dây số 2: CỐNG ở ngăn 1 có nhấn & XỰ ở ngăn 9 thường dùng
D-|---------------------------------------------------------------------------
A-|-0(xê)-1(cống)-3(oan)-5(hò)8(xự)-xự(9)-10(xang)-12(xê)-14(cống)-15(oan)-...
D-|-0(hò)-3(xự)-5(xang)-7(xê)-9(cống)-10(oan)-12(hò)-15(xự)-17(xang)-....-----
G-|-0(xang)-2(xê)-3(cống)-5(oan)-7(hò)-10(xự)-12(xang)-....-------------------
D-|---------------------------------------------------------------------------
A-|---------------------------------------------------------------------------

Nốt Dây Kép (Sol)
Về dây sô 2 : XỰ ở ngăn 2 thường dùng

D-|-0(xê)-2(cống)-3(oan)-5(hò)-8(xự)-10(xang)-12(xang)-....-------------------
A-|-2(xự)-3(xang)-5(xê)-7(cống)-8(oan)-10(hò)-....----------------------------
D-|---------------------------------------------------------------------------
G-|-0(hò)-3(xự)-5(xang)-7(xê)-9(cống)-10(oan)-12(hò)-....---------------------
D-|---------------------------------------------------------------------------
A-|---------------------------------------------------------------------------

Nốt Dây Kép cao (La)
Về dây số 2: XỰ ở ngăn 4 thường dùng

D-|-0(xang)-2(xê)-4(cống)-5(oan)-7(hò)-10(xự)-12(xang)-....-------------------
A-|-0(hò)-3(xự)-4(xự)---5(xang)-7(xê)--9(cống)-10(oan)-12(hò)....-------------
D-|---------------------------------------------------------------------------
G-|-0(oan)-2(hò)-5(xự)-7(xang)-9(xê)-11(cống)-12(oan)-...---------------------
D-|---------------------------------------------------------------------------
A-|---------------------------------------------------------------------------

Tương tự như trên, công thức theo ký âm của tân nhạc : C=Dô, D=Rê, E=Mi, F=Fa, G=Sol, A=La, B=Si (có 7 nốt)
Tất cả cách nhau 1 ngăn ngoại trừ E qua F là ngăn kế tiếp. B qua C trở lại nốt đầu cũng là ngăn kế tiếp.
Và cũng tương tự như trên quí vị cũng có thể biết hết nốt trên cần đàn. Phần này để quí vị tự làm lấy.

Vọng cổ có 6 câu. 1 câu có 8 khuôn. 1 khuôn có 4 nhịp. 1 nhịp có 4 nhịp con ( 1 nhịp con = 1 nhịp của tân nhạc). Tức là 1 khuôn có 16 nhịp con. Bản đàn sẽ được phân theo 16 nhịp con của mổi khuôn cho dể đàn. Tức là 1 câu có 32 nhịp hoặc 128 nhịp con. Khuôn thì có khuôn Hò, Xang, Xê, Xề, Cống.

6 Câu viết theo khuôn:

Câu 1 : Hò, Xê, Xang, Cống. Có 4 khuôn vì Câu 1 bắt đấu từ khuôn 5 để vô vọng cổ.
Câu 2 : Xề, Xang, Xang, Hò, Hò, Xê, Xê hoặc Xang (thường về Xê để dứt Xang), Xang
Câu 3 : Xề, Xang, Xang, Xê, Xang, Cống, Xê, Hò

Câu 4 (Vô vọng cổ) : Hò, Xê, Xê, Hò. Có 4 khuôn vì mất 4 khuôn để vô vọng cổ.
Câu 4 (Nguyên câu) : Hò, Xề, Xề, Xê, Xang, Cống, Xang hoac Xê, Hò

Câu 5 (Vô vọng cổ) : Hò, Xê, Xê hoặc Xang, Xề. Có 4 khuôn vì mất 4 khuôn để vô vọng cổ
Câu 5 (Nguyen câu) : Xề, Hò, Hò, Hò, Hò, Xê, Xê hoặc Xang, Xề
Câu 6 : Xề, Xê, Xang, Cống, Xê, Xề, Xê, Hò

Người hát vọng cổ bắt đầu câu nào thì câu đó phải vô nốt hò nhịp 16.
Thường có thể vô câu 1, 2, 4, hoặc câu 5. Câu 2 vô được vì có cặp hò ở khuôn 4, và 5. Nhưng ít khi nghe
người hát vô câu 2.

Còn người đàn thì phải biết đàn nhiều cách cho 1 khuôn hoặc câu để làm phong phú cho bài đàn
của mình. Cho nên tôi sẽ bỏ lên đây nhiều cách đàn khác nhau trong cùng 1 khuôn hoặc câu .
Biết càng nhiều càng tốt. Điều quan trọng là: để chuyển từ khuôn này qua khuôn kia dể dàng.

Và lý do tôi bỏ lên nhiều bài bản 6 câu vọng cổ là để các bạn hiểu biết về sự biến hóa và sự phong phú của nó - đó là 1 nghệ thuât. Và vì bản vọng cổ được xử dụng nhiều & là bản chính của tân cổ cho nên tôi muốn các bạn biết rành 6 câu trước . Còn các bài bản nhỏ thì quá nhiều từ từ từng bài mình sẽ học sau.


Về Phím đàn :

Cũng rất quan trọng trong lúc chọn loại phím hoặc cách cầm phím. Vì cả hai điều này sẽ tạo điều kiện cho mình đàn nhanh được .
1. Nên chọn lọai phím mỏng:.46mm hoặc Fender Thin. Mổi người khác nhau 1 ít.
2. Cách cầm phím : Co ngón trỏ thành hình chữ U, đặc phím lên trên hông đốt ngoài của ngón trỏ & kẹp lại bởi lòng đốt ngoài của ngón cái. Cách cầm này giống như cách cầm để chơi nhạc rock. Lúc ban đầu cầm không quen có vẽ khó cầm. Nhưng ráng tập như vậy để sau này không bị trở ngại. Thường Thường, lúc ban đầu nhiều người hay cầm phím dùng lòng ngón tay trỏ & lòng ngón tay cái để kẹp lại. Cách này thấy dể cầm nhưng đàn nhanh không kịp . Dưới đây là hình cầm phím đúng & không đúng.


Bấm Nốt :

Nên xử dụng cả 4 ngón để bấm nốt - ngón trỏ, ngón giữa, ngón nhẩn, & ngón út.

Điều quan trọng nhất là luyện tập cho nhiều & nhất quyết không nản lòng.

************************************************************************************

Phần này để web search :

Để người tìm kiếm trên mạng có thể tới trang này dể dàng tôi viết mấy từ ngữ liên quan đến trang web này : dan cai luong, dan co nhac, dan nhac dan toc, dan vong co, dan 6 cau, dan sau cau, tu hoc dan, guitar phim lom, ghita phim lom, day dao, day kep,...


<bài viết được chỉnh sửa lúc 06.04.2007 12:16:19 bởi GuitarVongCo >

GuitarVongCo
  • Số bài : 96
  • Điểm thưởng : 0
  • Từ: 06.01.2006
Guitar vọng cổ cau 1, 2-dây đào sang kép cao (La) - 06.01.2006 07:55:10
Guitar vọng cổ cau 1, 2-dây đào sang kép cao (La)

Tips để Copy & Paste vào trong Word or Wordpad: Dùng font: Courier New, size 10.


D-|--------0-4-4h7-9-7-9-7-----7-0-7-10-12-10--12-9------0--------------------
A-|-5---0-5---------------9-0-9--------------------12-9-0---------5-----------
D-|----0-------------------------------------12-----------5~-3-0h3------------
G-|---------------------------------------------------------------------------
D-|---------------------------------------------------------------------------
A-|-/1//--4--/-----/-----/--8--/---------/------/--12---/-/----/--16----------

D-|--0-2-3-2-0-3-2-0---------------------------0---0----0--0-5-4-0-0-4h5-7-9^7
A-|-5---------------1-0-0---0-----------------0-1-0----0----------5-----------
D-|--------------------5~2h3----0-----0-3n-0-3------5~---0--------------------
G-|--------------------------5n5~0-2-3-2--------------------------------------
D-|-------------------------------------------------------0-------------------
A-|-/----/-------/-----4--/----/-/-----8---/----/---/---12-/-----/----/----16-
Xang
D-|-7-7-8-7-----7-0-8-7-0-7-10-12-10-0-10-12-0-12-9-------12-9-9-12-----------
A-|--------8---8-----------------------------------12-10~9---------9-12-10~---
D-|----------7-------------------------------------------------------------12-
G-|---------------------------------------------------------------------------
D-|---------------------------------------------------------------------------
A-|-/-----/--/--4-----/---------/----------/--------8----/---/-----/-------12-

D-|-0---9-9-12-0-12-----------------------------------------------------------
A-|----9-----------9-10~------------------------------------------------------
D-|--12-----------------------------------------------------------------------
G-|---------------------------------------------------------------------------
D-|---------------------------------------------------------------------------
A-|---/-/------/------16------------------------------------------------------
Cống
D-|-----------------10h12-10--10-12h14-15-14-15-14-12---12-14-15-----12-15-12-
A-|-10~-10~-10~-9-12--------12-----------------------15---------12-15---------
D-|---------------------------------------------------------------------------
G-|---------------------------------------------------------------------------
D-|---------------------------------------------------------------------------
A-|-/--------/-----/-------4---/-----/-----/----------8----------/----------/-

D-|-------------0--------0-2-3------------------------------------------------
A-|14^12-10~-9--------0-1-----1-----------------------------------------------
D-|-----------12-0-3-5~-------------------------------------------------------
G-|---------------------------------------------------------------------------
D-|---------------------------------------------------------------------------
A-|----/------12-/---/---/---16-----------------------------------------------
Xề
D-|-0---------------3-2-0-3-2-0-3-2-0-0----0-3-2-0-----0----------------------
A-|--1n---0-000-0--------------------3--0-3-------1-0-3---0--0--0-----0-----0-
D-|--------------3-3------------------------------------5~-3n-2----0h3-3h2----
G-|--------2---2-------------------------------------------------5~----------2
D-|---------------------------------------------------------------------------
A-|-/--/---/--4-/--/--/-------8------/-----/------/----12--/-----/----/------/
Xang
D-|----------------7-5----10---------------7-9-10-9-7--------7-10-7-----------
A-|--3n-0-3-0-3-5-7---5->7-----10-7-10-7-10----------10~-7-10-------9^7-5~-4--
D-|-2----------------------10-------------------------------------------------
G-|---------------------------------------------------------------------------
D-|---------------------------------------------------------------------------
A-|--/------/------/------4--/---------/--------/---8----/--------/---/-------

D-|-----7-4-4-7---------------------------------------------------------------
A-|--0---------0-4---5~-------------------------------------------------------
D-|-7-7------------7----------------------------------------------------------
G-|---------------------------------------------------------------------------
D-|---------------------------------------------------------------------------
A-|12-/---/----/----16--------------------------------------------------------
Xang
D-|----------5h7-5-5-7h9-10-7-10-9-7--7-9-10----7-10-7------------4-----------
A-|----5~-4-7-----7-----------------10------7-10------9^7-5~-4-0-4-8n-7-0-5~--
D-|-----------------------------------------------------------7---------------
G-|---------------------------------------------------------------------------
D-|---------------------------------------------------------------------------
A-|-/--/----/----4-/---/----/--------8------/--------/-/---12--/--/--/----16--

D-|-----------------------------------------7-7-4-7---------------------------
A-|5~5~5~0---3-0----3-3-0-3-----------3n-0-7-------7-0----7-------------------
D-|-------0h2------5-5-5---2-----------------7--------7-10-------7------------
G-|-------------5-5----------------------------------------9-7~-5-------------
D-|---------------------------------------------------------------------------
A-|-/--/--/----4--/-/-/----8-------------/--/-/---12--/---/--/---16-----------

D-|---------------------------------2-2-3-2-2---------7-747-7---------------7-
A-|---------------------------0-2-3--------0-3---3-0-7-----7-5~-0-3-0-3-5--7--
D-|-7-7-9-10-9-7-10-9-7-5n-5~------------------2-------7-----------2---------7
G-|---------------------------------------------------------------------------
D-|---------------------------------------------------------------------------
A-|-/------/--------/------4----/---/-----/----8---/--/-/-12-/-----/----/---16

D-|--10-9-7-----10--10-7-9-10-9-7-------------7-4-4-7---------47--------------
A-|-7------10~-7-----------------9-8-7-0-7-0-7-------4-7-5~-0---4-5~7-9^7-----
D-|---------------10---------------------------------------7-7----------------
G-|---------------------------------------------------------------------------
D-|---------------------------------------------------------------------------
A-|/--/---/----4---/---/--------/----8---/------/----/----12-/--/--/----16----

D-|-7--------10--10-7-9-10-9-7-------------7-4-4-7---------4-7----------------
A-|--9n-9-7-7-----------------9-8-7-0-7-0-7-------4-7-5~-0----4-5~-7-9^7------
D-|------------10---------------------------------------7-7-------------------
G-|--------9------------------------------------------------------------------
D-|---------------------------------------------------------------------------
A-|-/--/--/-4---/---/--------/----8---/------/----/----12-/---/--/-----16-----
Xang
D-|---------7-9-10-9-7-9-7--------7-10-7--7---------7-4----------447---------
A-|-777-7-7---------------10~-7-10---------9-8-7-0-7---7-7-5~-0-4---0-4---5~..
D-|-------------------------------------10-------------------7-7--------7-----
G-|---------------------------------------------------------------------------
D-|---------------------------------------------------------------------------
A-|---/---/------/-------4----/--------/--/----8---/--/--/---12/-/--/----16---
<bài viết được chỉnh sửa lúc 12.09.2008 11:30:27 bởi GuitarVongCo >

GuitarVongCo
  • Số bài : 96
  • Điểm thưởng : 0
  • Từ: 06.01.2006
Guitar Vọng cổ câu 1, 2 - Dây Đào - 06.01.2006 08:02:28
Bài này đã chuyển xuống ở dưới.
<bài viết được chỉnh sửa lúc 18.03.2006 00:42:40 bởi GuitarVongCo >

GuitarVongCo
  • Số bài : 96
  • Điểm thưởng : 0
  • Từ: 06.01.2006
Guitar Vọng Cổ Câu 1, 2 - Dây Kép Cao (La) sang Đào - 06.01.2006 08:04:59
Guitar Vọng Cổ Câu 1, 2 - Dây Kép Cao (La) sang Đào



Tips để Copy & Paste vào trong Word or Wordpad: Dùng font: Courier New, size 10.



D-|--------7-7-7----3-2-2-----------5-7-9-10-9-7------------------------------
A-|-----------7-5~-0---0-3-3-0-3-5-7------------10-9-7-10-9-7-0---------------
D-|-7---7-7---------------2------------------------------------3--2-0---------
G-|-------------------------------------------------------------------3-2-----
D-|---------------------------------------------------------------------------
A-|16-///-4--/--/-----/---8--/------/--------/-------12-------/-------/-------

D-|---------------------------------------------------------------------------
A-|-0-3-5-7-5~----------------------------------------------------------------
D-|-----------7---------------------------------------------------------------
G-|---------------------------------------------------------------------------
D-|---------------------------------------------------------------------------
A-|-----/----16---------------------------------------------------------------

D-|-----7-14-10-9-7--------7-9-10-9-7-------------7-4-4-7---------------------
A-|-7-10-7---------10~-7-10----------9-8-7-0-7-0-7-------4-7-5~------3-0-3-0--
D-|------------------------------------------------------------7-0h2----------
G-|---------------------------------------------------------------------------
D-|---------------------------------------------------------------------------
A-|-/---/--/----4---/------/--------/----8---/------/----/----12----/------/--

D-|---------7-----------------------------------------------------------------
A-|--0-4-5-7-9->7-------------------------------------------------------------
D-|-7-------------------------------------------------------------------------
G-|---------------------------------------------------------------------------
D-|------/------16------------------------------------------------------------
A-|---------------------------------------------------------------------------
Xang
D-|--------------10-7---10-9-7---7910----7-10--10-9-7-10-9-7-----------4-4-7--
A-|-7-5~-7-9--7-7--------------10----7-10-------------------9^7-5~4-0-4-------
D-|------------------------------------------10--------------------7-7--------
G-|------------9--------------------------------------------------------------
D-|---------------------------------------------------------------------------
A-|-/--/------/-4---/--------/-------/-------8----/--------/--/---12-/-/------

D-|---------------------------------------------------------------------------
A-|-0-4---5~------------------------------------------------------------------
D-|-----7---------------------------------------------------------------------
G-|---------------------------------------------------------------------------
D-|---------------------------------------------------------------------------
A-|-/----16-------------------------------------------------------------------
Cống
D-|-----------------------------------------------4-7---------4-7-----7-------
A-|-5~5~5~-3-2-3-2-0--------------3n-0-----3n0-4-7---4-7-5~-0----4-5~7-9------
D-|------------------3-2-0-3-2-0-5----3-2-2----------------7-7----------------
G-|-----------------------------5---------------------------------------------
D-|---------------------------------------------------------------------------
A-|-/---/----/-------4-------/---/--/-----8--/---/---/----12-/---/--/-16------
Xề
D-|---7---------10-7-10-9-7-7-9-10----7-10-10-7-9-10-9-7--7-----7^--3^232-2---
A-|10~--10~9~7-7----------10------7-10---------------------9~8-7-0-3-----0-3--
D-|---------------------------------------10------------10------------------2-
G-|---------------------------------------------------------------------------
D-|---------------------------------------------------------------------------
A-|--/-/---/---4---/-------/------/-------8---/--------/--/---12-/--/---/--16-

Xang
D-|-----------------------3-0-----------------0-3-2-0-------------------------
A-|----------------0-3-0-3---5-3-----------0-3-------1--------1-3-1-0-5-3-----
D-|-2-3-2-3-0-3-0-3-------------5-3-0-3-0-3-----------3--3-0-3-----------5~3-0
G-|----------------------------------------------------3----------------------
D-|---------------------------------------------------------------------------
A-|-/-------/------/------4-----/-------/-----/------8--/-----/-------/-----12

D-|---------------------------------------------------------------------------
A-|--------1-3-1-0------------------------------------------------------------
D-|-3-2-0-3-------0-5~--------------------------------------------------------
G-|------3--------------------------------------------------------------------
D-|---------------------------------------------------------------------------
A-|------/-/---/---16---------------------------------------------------------
Xang
D-|----------------------7-10-7-10-12------15--15-12-14-15-14-12--------------
A-|---0---------8-10-8-10------------10~-12---------------------14^12---------
D-|-5~-7-10-7-10-----------------------------15-------------------------------
G-|---------------------------------------------------------------------------
D-|---------------------------------------------------------------------------
A-|/-/-/--------4--------/----------/---/-----8----/-----------/---/----------

D-|--------0-12-0-12-9---------9--12------------------------------------------
A-|-10~-9-------------12-9---9--12--9-10~-------------------------------------
D-|------12---------------12--------------------------------------------------
G-|---------------------------------------------------------------------------
D-|---------------------------------------------------------------------------
A-|------12--/---------/-------/------16--------------------------------------

D-|-----------------10h12-10--10-12-14-15-14-12--12-15--15--15-12-14-15-14-12-
A-|-10~-10~-10~-9-12--------12-----------------15-----12----------------------
D-|-------------------------------------------------------15------------------
G-|---------------------------------------------------------------------------
D-|---------------------------------------------------------------------------
A-|-/-------/------/-------4---/----/---------/--------8---/---/------------/-

D-|---------------------------------------------------------------------------
A-|-14-13-12------------12--12------------------------------------------------
D-|---------15-12--12-15------15-12h15-12-------------------------------------
G-|--------------14-------14--------------------------------------------------
D-|---------------------------------------------------------------------------
A-|------12-----/--------/---/---------16-------------------------------------

D-|-0-0---0------------------------------0-3-2-0--------------0---------------
A-|------0-3-1-0------0---0-----------0-3-------5-3----------0-3--------------
D-|----0--------5~-0h2-3p2--3--0-3-0-3-------------5~-3-0-0-3---5~-3-0h3-0----
G-|------------------------2-----------------------------2--------------------
D-|---------------------------------------------------------------------------
A-|/-/-/--4--/--/-----/----8---/------/------/----12----/----/--/-------16----

D-|---0-------3-0-3-0-3-0-----0-12-10-12-15-10-12-9--12------------0-5-4-0-0-4h5-7-9^7
A-|--0--1-0-3~-----------3-1-0---------------------12--9-12-10~10---------5-----------
D-|--------3---3-----3-------------------------------------------12-------------------
G-|-3---------------------------------------------------------------------------------
D-|-----------------------------------------------------------------------------------
A-|-/-/---/-4--/----/-/------8-----/------------/------/-------12--/-----/-----/-----16

D-|-7-7-8-7-----7-0-8-7-0-7-10-12-10-0-10-12--0-12-9--------12-9-----------0--
A-|--------8---8------------------------------------12-10~-9----12-12-10~-----
D-|----------7-----------------------------------------------------------12---
G-|---------------------------------------------------------------------------
D-|---------------------------------------------------------------------------
A-|-/-----/--/--4-----/--------/-----------/--------8------/---/----/----12---

D-|---9-12--------------------------------------------------------------------
A-|-------9-10~-12-14^12------------------------------------------------------
D-|-12------------------------------------------------------------------------
G-|---------------------------------------------------------------------------
D-|---------------------------------------------------------------------------
A-|--/----/---/-------16------------------------------------------------------
Xang
D-|-----------------12-14-15-14-12-14-12---------12-15-12-15-0-15-12-0-12-9---
A-|-12-12-12--12-12---------------------15~-12-15--------------------------12-
D-|---------------------------------------------------------------------------
G-|---------------------------------------------------------------------------
D-|---------------------------------------------------------------------------
A-|--------/------/--------/-----------4-----/----------/----------/--------8-

D-|------12-9-----------0-12-9-12-9-----0-------------------------------------
A-|-10~-9----12-12-10~-------------12-9--10~----------------------------------
D-|-------------------12------------------------------------------------------
G-|---------------------------------------------------------------------------
D-|---------------------------------------------------------------------------
A-|-----/---/----/----12---/------/---/---16----------------------------------
<bài viết được chỉnh sửa lúc 12.09.2008 11:34:57 bởi GuitarVongCo >

GuitarVongCo
  • Số bài : 96
  • Điểm thưởng : 0
  • Từ: 06.01.2006
Guitar Vọng Cổ Câu 5,6 - Dây Kép Cao (La) - 06.01.2006 10:24:04
Guitar Vọng Cổ Câu 5,6 - Dây Kép Cao (La)



Tips để Copy & Paste vào trong Word or Wordpad: Dùng font: Courier New, size 10.


D-|--------7-7-7----3-2-2-----------7-747-7-----------------------------------
A-|-----------7-5~-0---0-3-3--0----7-----7-5~-0-3-0-3--5-7-5~-----------------
D-|-7---7-7---------------2----------7-----------2------------7---------------
G-|---------------------------------------------------------------------------
D-|---------------------------------------------------------------------------
A-|16-///-4--/--/-----/---8---/-----/-/-12-/-----/-----/-----16---------------

D-|---10-791097-1097--7910----7-10-7--7-----------7447---------4747----------
A-|5h7--------------10----7-10---------9-8-7-07-07----4-7-5~5-0----0-4-5-7-9^7
D-|---------------------------------10-----------------------7---------------
G-|---------------------------------------------------------------------------
D-|---------------------------------------------------------------------------
A-|--/---/----/------4----/--------/--/----8--/----/--/----12-/--/-----/----16

D-|-7-------------10-7-10-9-7-----------------------------------4-7-4-7-------
A-|--9n-9-7-7----7-----------10-9-7------------------------------------045-797
D-|----------10-7------------------1097-10-9-7-10-9-7----------7--------------
G-|--------9-----------------------------------------10-9-7-5-5---------------
D-|----------------------------------------------------------7----------------
A-|-/-/---/-4---/--/------/-------8--/-------/--------/-----12-/----/----/---16
Xề
D-|-------7-9-10-9-7-9-7-------7-10-7--7-----------5-7-7^4^2-----------2------
A-|777-7-7--------------10~7-10---------9-8-7-07-07---5~----3-2-320-0h2-3p2-0-
D-|----------------------------------10----------------------------5~--------2
G-|---------------------------------------------------------------------------
D-|---------------------------------------------------------------------------
A-|--/---/-----/-------4---/--------/--/----8--/-----/--/-12--/----/---/----16
Xề
D-|------------------------2--------------------------5~-7-9-7-9-10--10-7-10-9
A-|-------------------0-2-3-3-2-3-2-0-0-------------3-------------------------
D-|2-22222---5-2-5-2-5---------------3-3-2-0-3-2-0-5---------------10---------
G-|-----------------------------------------------5---------------------------
D-|---------------------------------------------------------------------------
A-|/---/-------/------4-----/-----/----/-------8---/--/----/-------12---/-----

D-|-7-----3-2-2---------------------------------------------------------------
A-|--9-7-0---0-3--------------------------------------------------------------
D-|-------------2-------------------------------------------------------------
G-|---------------------------------------------------------------------------
D-|---------------------------------------------------------------------------
A-|--/------/---16------------------------------------------------------------

D-|---------------------------------------4-7-----------4-7-4-7---------------
A-|-1-1-1-11-1-0--3---3-0-3-0-0-3-3n-0-4-7---4-7-5~-5~-0-------0-4-5-7-9^7----
D-|-------------5~--5--------5---2--------------------7-----------------------
G-|----------------5----------------------------------------------------------
D-|---------------------------------------------------------------------------
A-|--/--/---/---4--/--/-----/----8---/---/---/-----12--/----/------/----16----
Xang
D-|-7--------10----------7---10-9-7-----------------------------4-4-7---------
A-|--9n-9-7-7----10~-7-10----------109-7-----------------------4-----0-4-0-5~-
D-|------------10-----------------------1097-1097-1097--------7---------------
G-|--------9------------------------------------------1097-5-5----------------
D-|---------------------------------------------------------7-----------------
A-|-/-/---/-4---/----/----------/------8--/-----/------/---12-/-/----/----16--
Cống
D-|-------------------10-7-9-10-9-7---------7-44-7----------4-7-----7---------
A-|-5~5~5~-0---3-0-----------------9-8-7-0-7------4-7-5~-0-----4-5~7-9--------
D-|---------0h2---7-10----------------------------------7-7-------------------
G-|---------------------------------------------------------------------------
D-|---------------------------------------------------------------------------
A-|-/---/----/---4---/---/--------/----8---/--/---/----12-/----/--/--16-------

D-|----7-----7--7-9-11-7-9-10-9-7-10-9-7--7-9-10--10-7-10-7-----------4-7-4-7-
A-|-7h9-9-7---97------------------------10------10---------9^7-5~-4-0---------
D-|--------10------------------------------------------------------7-7--------
G-|---------------------------------------------------------------------------
D-|---------------------------------------------------------------------------
A-|---/-/----/-4--/----/--------/--------8-------/--------/--/----12-/----/---

D-|---------------------------------------------------------------------------
A-|-0-4-5-7-9^7---------------------------------------------------------------
D-|---------------------------------------------------------------------------
G-|---------------------------------------------------------------------------
D-|---------------------------------------------------------------------------
A-|-----/-----16--------------------------------------------------------------
Xề
D-|--------7-9-10-9-7-9-7--------7-10-7--10-7--------------5-7--7^4^2^--------
A-|-777-7-7--------------10~-7-10------------9-8-7-0-7-0-7----5~-----3-2------
D-|------------------------------------10-------------------------------------
G-|---------------------------------------------------------------------------
D-|---------------------------------------------------------------------------
A-|---/---/----/--------4----/--------/---/------8---/-------/--/--12--/------

D-|-------------2-------------------------------------------------------------
A-|-3-2-0--0h2---3p2-0--------------------------------------------------------
D-|------5~-------------2-----------------------------------------------------
G-|---------------------------------------------------------------------------
D-|---------------------------------------------------------------------------
A-|------/-----/-------16-----------------------------------------------------

D-|---------10--10-7-9-10-9-7-------------744-7---------4-7-------------------
A-|-0--3-0-7-----------------9-8-7-0-7-0-7-----4-7-5~-0----4-5~7-9^7----------
D-|---5---7---10-------------------------------------7-7----------------------
G-|--5------------------------------------------------------------------------
D-|---------------------------------------------------------------------------
A-|-/-/--/-4---/---/--------/----8---/-----/---/----12-/---/--/----16---------

D-|-10-7-10-9-7--7-9-10----7-10-7--10-7-------2-----------------5-7-9-10-9-7--
A-|------------10------7-10------------9-7-0h2-3h2-0--3n-0-3-5-7--------------
D-|------------------------------10------------------2------------------------
G-|---------------------------------------------------------------------------
D-|---------------------------------------------------------------------------
A-|----/--------/------/--------4---/--/------/------8---/------/--------/----


D-|-----------------10---------------------------------------------------------
A-|10-9-7---------12-----------------------------------------------------------
D-|-------10-7->10----12~->10-7------------------------------------------------
G-|----------------------------------------------------------------------------
D-|----------------------------------------------------------------------------
A-|----12----/----/---/-------16-----------------------------------------------
<bài viết được chỉnh sửa lúc 04.10.2007 04:41:14 bởi GuitarVongCo >

GuitarVongCo
  • Số bài : 96
  • Điểm thưởng : 0
  • Từ: 06.01.2006
Guitar Vọng Cổ - Dây Kép Rao 1 - 06.01.2006 10:33:07
Chí Tâm Độc Tấu Vọng Cổ - Dây Kép Rao 1 - Track 01

Đây là CD độc tấu cải lương của NS Chí Tâm. Các bạn có thể mua tại Chí Tâm production để tham khảo thêm.



Tips để Copy & Paste vào trong Word or Wordpad: Dùng font: Courier New, size 10.


Rao
D-|-------------------------------8---0--8-7-5----8-8-5---------------0-3-2-0-
A-|-10n1010101010-10g~10~8n~-8n~10-10---------8~-5-----7~5-3~-3~-3~-3~-------1
D-|---------------------------------10~-8----------8------0-------------------
G-|---------------------------------------------------------------------------
D-|---------------------------------------------------------------------------
A-|---------------------------------------------------------------------------

D-|-------------------------------------------5--0-5---5-7-9-9-7h9-7-9->12--12
A-|-1-3-1-0--------------------------------5-2-3~-----------7-----------------
D-|--------1-0-5----0---0----------5--0-5-8-0-------5-5-------------------12--
G-|-------------5~5~-0-3----0-0-3---5~-7-------------0------------------------
D-|----------------------0-3-5------------------------------------------------
A-|---------------------------------------------------------------------------

D-|-9^7-------8-----0--8n-5-7-9-7-5-------------------------------------------
A-|----10-8~10-10------------------7-6-5------------------------------------5-
D-|--------------10~-8------------------8-7-5------------0----------5--0-5-8-0
G-|------------------------------------------8-7-5~-7-0-3----0-0-3---5~-7-----
D-|-------------------------------------------------------0-3-5---------------
A-|---------------------------------------------------------------------------

D-|--5--0-5-------------------------------------------------------------------
A-|-2-3~----------------------------------------------------------------------
D-|--------5-5----------------------------------------------------------------
G-|---------0-----------------------------------------------------------------
D-|---------------------------------------------------------------------------
A-|---------------------------------------------------------------------------
<bài viết được chỉnh sửa lúc 18.06.2007 04:56:52 bởi GuitarVongCo >

GuitarVongCo
  • Số bài : 96
  • Điểm thưởng : 0
  • Từ: 06.01.2006
Guitar Vọng Cổ - Dây Kép Câu 1 2 - 06.01.2006 10:35:03
Chí Tâm Độc Tấu Vọng Cổ - Dây Kép câu 1 2 track 02

Đây là CD độc tấu cải lương của NS Chí Tâm. Các bạn có thể mua tại Chí Tâm production để tham khảo thêm.



Tips để Copy & Paste vào trong Word or Wordpad: Dùng font: Courier New, size 10.


Hò Câu 1

D-|----------0-5-2---------------------0-5------------------------------------
A-|--------3~-----5-3n-3~-------------5---3~----------------------------------
D-|-5--5-55--------------0-0-5-3~0-5-8------0-3-5-3----5----------------------
G-|------------------------------------------------5~-3-----------------------
D-|---------------------------------------------------------------------------
A-|16///--4--/---/--/----8-/---/---/-12--/--/------/---16---------------------



D-|----------------------3~-5h7-5-8-8-5-8-5---0-5---------2-5----0-5----------
A-|---------------3-5-3-5------------------7-5---2-5-3~------2-3~---7-5-------
D-|--------3-5-3-5-----------------8-------------------5-5--------------------
G-|-3-5-3-5---------------------------------------------0---------------------
D-|---------------------------------------------------------------------------
A-|-/------/------/------4----/---/-/-----8--/--/-/---12-/---/--/----16-------

Xang

D-|-5------8-8-5-5--------5-2-5-2-------------------0-3-5-3-------------------
A-|--7~-5-5-------7-5-3~-2-------5-3~---------0-2-3~--------3~----------------
D-|------0--8---8----0---------------5---0-3-5-------------5------------------
G-|-----------------------------------3-5-------------------------------------
D-|---------------------------------------------------------------------------
A-|-/--/-/4-/--/-/--8-/---/-----/---12---/------/-------/---16----------------

Cống

D-|---------------0-8-5--5--------5-2-5-2---------------5---------------------
A-|----3~-3~-2-3~--5------7-5-3~-2-------5-3~---2-2-3~-5-7--------------------
D-|-----------0--5------8----0---------------5-5------------------------------
G-|-------------------------------------------0-------------------------------
D-|---------------------------------------------------------------------------
A-|----/--/---/--4-/--/--/--8-/---/-----/---12-/--/---/--16-------------------

Xề Câu 2

D-|------------------8-------0--8-5-5---0----0-0------------------------------
A-|--7~-5-5-8h10-8h10-10-8-----------7-5--0-2---3~-2--------------------------
D-|------0----------------10~-8~---8-----5----------0-------------------------
G-|---------------------------------------------------------------------------
D-|---------------------------------------------------------------------------
A-|-/--/-/4----/----/--/---8--/---/-/-12-/--/--/---16-------------------------

Xang

D-|----------------------------------5-2-------0-5-9-0------------------------
A-|-------------------------------5-2---5-5-3~------7----3~-------------------
D-|-0-000-----------------5--0-5h8-0----------5-------1-0---------------------
G-|------3-0-3-----0-0-3---5~-------------------------------------------------
D-|-----------0-0-3-5---------------------------------------------------------
A-|/-/--/-----4----/------/--/----8-/--/--/--12--/--/-/--16-------------------

Xang

D-|-------------------0-5-2-5-2----------5-3p2-0------------------------------
A-|-3~3~3~3~3~3~3~-2-2---------5-2-5-3~-2-------2-3~--------------------------
D-|-----------------0-----------------5----------5----------------------------
G-|---------------------------------------------------------------------------
D-|---------------------------------------------------------------------------
A-|/-/--/-4-/--/--/-8-/---/------/---12--/---/--/-16--------------------------



D-|-------------5-2-5-3-2-2------------------5---0-5--------------------------
A-|-3n-3n-3~-2-2---------5-3~-2---------------7-5---3~------------------------
D-|-----------5----------------0-0-5-3~-0-5-8--------0-3-5-3---5--------------
G-|---------------------------------------------------------5~3---------------
D-|---------------------------------------------------------------------------
A-|/--/---/---4-/-----/---/----8-----/----/--/-12--/-/------/--16-------------


D-|----------0-5-2-------------0-5-3-2-0--------------------------------------
A-|--------3~-----5-5-3~----------------3~3~----------------------------------
D-|-5-5-0-5-------------0-0-5h8----------5--0-3-5-3----5----------------------
G-|----0-------------------------------------------5~-3-----------------------
D-|---------------------------------------------------------------------------
A-|/-/-/--4--/---/--/---8-/---/--/----12-/--/------/---16---------------------



D-|---------8-5-7-8-7-5------5-8-5-5-----5-2-5-2----------------5-5-----------
A-|--------------------8~-5-8-------7-5-2-------5-2-5-3~---3~->5-5-7-5-5------
D-|-5-5->8-8----------------------8----0----------------5-5-------------------
G-|------------------------------------------------------0--------------------
D-|---------------------------------------------------------------------------
A-|-/------/--/-------4---/------/-/--8-/--/------/----12-/----/-/----16------

Xang

D-|-5------------8--8-------0-5-8-5----------5-2-5-2-0------------------------
A-|--7~-5-5-8~-10-10-10-8----------7n^-5-3~--------------3~-------------------
D-|------0---------------10~-8------------5-5---------1-0---------------------
G-|----------------------------------------0----------------------------------
D-|---------------------------------------------------------------------------
A-|-/--/-/4-/----/----/---8--/----/---/--12-/--/------/--16-------------------

Xang

D-|---------0--------0-5----------0-5-2-5-2---------0-5-2-5-2-0---------------
A-|-3n--3n~----8~-6-5---2h3n-3~2-2---------5-2-5-3~---------------3~...-------
D-|----------8------------------0------------------5-----------1p0------------
G-|---------------------------------------------------------------------------
D-|---------------------------------------------------------------------------
A-|---/---/--/----4--/--/----/--8-/---/------/----12--/-----/--/--16----------

<bài viết được chỉnh sửa lúc 18.06.2007 05:05:47 bởi GuitarVongCo >

GuitarVongCo
  • Số bài : 96
  • Điểm thưởng : 0
  • Từ: 06.01.2006
Guitar Vọng Cổ Câu 5, 6 - Dây Đào sang Kép Cao (La) - 06.01.2006 10:38:03
Guitar Vọng Cổ Câu 5, 6 - Dây Đào sang Kép Cao (La)



Tips để Copy & Paste vào trong Word or Wordpad: Dùng font: Courier New, size 10.



D-|---------3-5~--7h9-7-9-7-------0-3-0-------0----------0--------------------
A-|-5----0-5---------------8---0-------1-3-1-0-3--------0-3-------------------
D-|-----0--------------------7---3--------------5~-3-0-3---5~-3-0h3-0---------
G-|---------------------------------------------------------------------------
D-|---------------------------------------------------------------------------
A-|16//-/--4----/---/-----/--8---/----/----/---12----/--/--/--------16--------

D-|-2-3-2-0-3---3-0-------0-3-0-30-----0-12-10-12-15-10-12-9--12------------0-5-4-0
A-|--------3-0-3---5-3--0---------3-1-0---------------------12--9-12-10~10---------
D-|-------------------5~-3-----3------------------------------------------12-------
G-|--------------------------------------------------------------------------------
D-|--------------------------------------------------------------------------------
A-|-/------/----/-----4--/----/-/-----8------/-----------/------/-------12--/-----/

D-|--0-4h5-7-9^7--------------------------------------------------------------
A-|-5-------------------------------------------------------------------------
D-|---------------------------------------------------------------------------
G-|---------------------------------------------------------------------------
D-|---------------------------------------------------------------------------
A-|------/----16--------------------------------------------------------------

D-|-7-7-8-7-7-0-7-10-12------10-12-0-12-0-12-9--------12-9-9-12----------0----
A-|--------8-----------10~-12-----------------12-10~-9---------9-12-10~-------
D-|--------------------------------------------------------------------12-12--
G-|---------------------------------------------------------------------------
D-|---------------------------------------------------------------------------
A-|-/-----/-/--------4-----/----/-----/-------8------/---/-----/-------12--/--

D-|-9-12----------------------------------------------------------------------
A-|------9-10~-12-14-12-------------------------------------------------------
D-|---------------------------------------------------------------------------
G-|---------------------------------------------------------------------------
D-|---------------------------------------------------------------------------
A-|------/---/-------16-------------------------------------------------------
Xề
D-|-------------12-14-15-14-12-14-12---------12-15-12-0-12-0-12-9--------10-12--
A-|-121212-12-12--------------------15~-12-15--------------------12-10~-12----10~
D-|-----------------------------------------------------------------------------
G-|-----------------------------------------------------------------------------
D-|-----------------------------------------------------------------------------
A-|------/----/--------/----------4-----/----------/-----/--------8-----/----/--

D-|-12-9-7------------7-------------------------------------------------------
A-|-------8-7h8n-8-7-5~-------------------------------------------------------
D-|--------------------7------------------------------------------------------
G-|---------------------------------------------------------------------------
D-|---------------------------------------------------------------------------
A-|-/---12--/----/---/16------------------------------------------------------
Xề
D-|--------------------------------7-9-10--10-9-7-7-------------7-10--10-9-7--
A-|----------------------7-10-7-10----------------------10~-7-10--------------
D-|-7-777777-10-7-10-7-10----------------10-------------------------10--------
G-|---------------------------------------------------------------------------
D-|---------------------------------------------------------------------------
A-|-/----/------/--------4---------/------/--/----8---------/--------/--/-----

D-|--------3-2-3-2-2----------------------------------------------------------
A-|-9-7-0-3-------0-3---------------------------------------------------------
D-|------------------2--------------------------------------------------------
G-|---------------------------------------------------------------------------
D-|---------------------------------------------------------------------------
A-|12---/--/-----/--16--------------------------------------------------------

D-|---------------------------------2-----------------------------------------------7----
A-|----------------------------0-2-3-3-2-0-2-----0-------3-0---------------------5-7-9->7
D-|-2-222-2222-2222-2-5-2-5-2-5-------------3-0h2---5-2-5---7-7-10-7-10-7-10-7-10--------
G-|-----------------------------------------------55-------------------------------------
D-|--------------------------------------------------------------------------------------
A-|-/---/----/----4-----/------/-----/------8---/--/--/----12-/---------/--------/-----16
Xang
D-|-7---------------10-7-10-9-7----------7-4-4-7----------4-4-7---------------
A-|--9~-7---777----7----------987-0-7-0-7-------4-7-5~-0-4-----0-4---5~-------
D-|------------10-7-----------------------------------7-7----------7----------
G-|------9--------------------------------------------------------------------
D-|---------------------------------------------------------------------------
A-|-/-/--/----4---/--/------/---8---/------/----/----12-/-/----/----16--------
Cống
D-|-----------------------------------------4-7---------4-7-----7-------------
A-|-5~-5~-5~-0---3-0-----3-0-3-0-0-3-3-0-4-7---4-7-5~-0----4-5~7-9------------
D-|-----------0h2----5~5~-------5---2----------------7-7----------------------
G-|-----------------5---------------------------------------------------------
D-|---------------------------------------------------------------------------
A-|-/-----/-----/--4-/---/-----/----8--/---/---/----12-/---/--/-16------------

D-|-7---------7-9-10-7--7-------------7-4-4-7---------4-7---------------------
A-|--9~7--777------------9-8-7-0-7-0-7-------4-7-5~-0----4-5~-7-9^7-----------
D-|-------------------10---------------------------7-7------------------------
G-|-----9---------------------------------------------------------------------
D-|---------------------------------------------------------------------------
A-|-/-/-/---4---/----/--/----8---/------/----/----12-/---/--/----16-----------
Xề
D-|--------7-9-10-9-7-9-7---------7-10-7--7--------------5-7---7^4^2^---------
A-|-777-7-7--------------10~-7-10----------9-8-7-0-7-0-7----5~-------3-2-3-2-0
D-|-------------------------------------10------------------------------------
G-|---------------------------------------------------------------------------
D-|---------------------------------------------------------------------------
A-|---/---/-----/-------4----/---------/--/----8---/-------/---/--12---/------

D-|----2----------------------------------------------------------------------
A-|-0h2-3p2-0-----------------------------------------------------------------
D-|5~--------2----------------------------------------------------------------
G-|---------------------------------------------------------------------------
D-|---------------------------------------------------------------------------
A-|/---/----16----------------------------------------------------------------

D-|---------10--10-7-9-10-9-7-------------7-4-4-7---------4-7-----------------
A-|-0--3-0-7-----------------9-8-7-0-7-0-7-------4-7-5~-0----4-5~-7-9^7-------
D-|---5---7---10---------------------------------------7-7--------------------
G-|--5------------------------------------------------------------------------
D-|---------------------------------------------------------------------------
A-|-/-/--/-4--/----/-------/-----8---/-----/----/-----12-/---/--/----16-------

D-|--------7-9-10-9-7-9-7--------7-10-7-------------7-7-4-7-7-----------------
A-|-777-7-7--------------10~-7-10------9-7-0-------7-------7-5~---------------
D-|------------------------------------------3-3n-0--7----------7-10------7---
G-|-------------------------------------------2---------------------9-7~-5----
D-|---------------------------------------------------------------------------
A-|---/---/----/--------4----/--------/----/--8---/-/-/---12-/------/-/---16--
<bài viết được chỉnh sửa lúc 12.09.2008 11:37:12 bởi GuitarVongCo >

GuitarVongCo
  • Số bài : 96
  • Điểm thưởng : 0
  • Từ: 06.01.2006
Guitar Vọng Cổ Câu 1, 2 - Dây Kép Cao sang Đào #2 - 06.01.2006 11:32:20
Guitar Vọng Cổ Câu 1, 2 - Dây Kép Cao sang Đào #2



Tips để Copy & Paste vào trong Word or Wordpad: Dùng font: Courier New, size 10.



D-|--------7-7-7----3-2-2-----------5-7-9-10-9-7------------------------------
A-|-----------7-5~-0---0-3-3-0-3-5-7------------10-9-7-10-9-7-0---------------
D-|-7---7-7---------------2------------------------------------3--2-0---------
G-|-------------------------------------------------------------------3-2-----
D-|---------------------------------------------------------------------------
A-|16-///-4--/--/-----/---8--/------/--------/-------12-------/-------/-------

D-|---------------------------------------------------------------------------
A-|-0-3-5-7-5~----------------------------------------------------------------
D-|-----------7---------------------------------------------------------------
G-|---------------------------------------------------------------------------
D-|---------------------------------------------------------------------------
A-|-----/----16---------------------------------------------------------------

D-|------7-10-12~-14->19-19-19-19^-16^-14-11~-9-7--------------47-47-----------
A-|-7h10------------------------------------------9n--7-5~-4-0------0-4-5-7-9^7
D-|---------------------------------------------------------7-7----------------
G-|---------------------------------------------------------------------------
D-|---------------------------------------------------------------------------
A-|/---/--/----4---/------/-----/-------8-----/---/-----/--12-/---/-----/----16
Xang
D-|-7----------10-7-10-7--7--------------744-7---------7-4-4-7----------------
A-|--9n-9-7-7--------------9n8-7-0-7--0-7-----4-7-5~-0--------0-4---5~--------
D-|----------10---------10--------------------------7-7-----------7-----------
G-|--------9------------------------------------------------------------------
D-|---------------------------------------------------------------------------
A-|-/--/--/-4---/------/--/----8---/------/---/----12-/--/----/----12---------
Cống
D-|-----------------------------------------4-7---------4-7-----7-------------
A-|-5~5~5~-0---3n-0-----3n-0-3-0-0-3-3~-0-47---4-7-5~-0----4-5~7-9------------
D-|---------0h2-----5~5~--------5---2----------------7-7----------------------
G-|----------------5----------------------------------------------------------
D-|---------------------------------------------------------------------------
A-|-/---/-----/---4-/---/------/----8---/--/---/----12-/---/--/--16-----------
Xề
D-|-7-----7-----7------10-7-9-10-9-7--------7-10-9-7--------------------------
A-|--9~-5~-9~-5~-9~-7---------------10~-7-10--------10-9-7-10-9-7-0-----------
D-|------------------10--------------------------------------------10-9-7-5~--
G-|---------------------------------------------------------------------------
D-|---------------------------------------------------------------------------
A-|-/--/-/-4--/--/----/---8--------/----/--------/------12--------/-------/---

D-|------2--------------------------------------------------------------------
A-|---0h2-3p2-0---------------------------------------------------------------
D-|------------2--------------------------------------------------------------
G-|---------------------------------------------------------------------------
D-|---------------------------------------------------------------------------
A-|------/-----16-------------------------------------------------------------
Xang
D-|---------------------3-0-7-7->12-12-12-12^12->15-15-15-14-12-----0-12------
A-|--------------0-3-0-3---5-----------------------------------14-12----9-12--
D-|-3-2-3-0-3-0-3-------------------------------------------------------------
G-|---------------------------------------------------------------------------
D-|---------------------------------------------------------------------------
A-|-------/------/------/---4--------/-----/---------/----8---/----/----/-----

D-|------0-12-0-12-9---------9--12--------------------------------------------
A-|-10~-------------12-9---9--12--9-10~---------------------------------------
D-|----12---------------12----------------------------------------------------
G-|---------------------------------------------------------------------------
D-|---------------------------------------------------------------------------
A-|----12---/--------/-------/------16----------------------------------------
Xang

D-|----------10h12-10-12h14-15^12^-----------12-15-12------------0-12-9-12-9--
A-|-10~---8-8---------------------15ng--12-15--------14^12-10~9---------------
D-|------------------------------------------------------------12-------------
G-|---------------------------------------------------------------------------
D-|---------------------------------------------------------------------------
A-|/-/-/4---/-------/-----/-----8--------/----------/----/-----12---/------/--

D-|-----0---------------------------------------------------------------------
A-|-12-9-10~------------------------------------------------------------------
D-|---------------------------------------------------------------------------
G-|---------------------------------------------------------------------------
D-|---------------------------------------------------------------------------
A-|----/-16-------------------------------------------------------------------

D-|-------------------3-0-3-0-3-0-----0-12-10-12-15-10-12-12-9------0---------
A-|10~10~10~-9n-0-3n-3-----------3-1-0------------------------12-9-0---------5
D-|--------------------3-----3---------------------------12----------5~-3-0h3-
G-|---------------------------------------------------------------------------
D-|---------------------------------------------------------------------------
A-|-/-----/-----/----4-/----/-/------8------/-----------/--/--12---/-/----/-16

D-|-02320-320---------------------0-320------------0--------------------------
A-|----------1-0------0-----0-0-3~-----1-0--------0-3-------------------------
D-|-------------5~-3p2---0h2---3----------5~-3-0-3---5~--3-0------------------
G-|--------------------5~----2------------------------------------------------
D-|---------------------------------------------------------------------------
A-|/--/----/----4----/-/---/-8/-/----/---12----/--/--/----16------------------

D-|--------0------------0-320-----------00------------0-3-0-0-4h5-7-9^7-------
A-|---0-0-3-5--0-----0-3-----1---1-3-1-0-5-3---------0-----0------------------
D-|----3-----5~-3-0-3---------3-3-----------5-3-0-3-5-------------------------
G-|--2-------------------------3----------------------------------------------
D-|-0-------------------------------------------------------------------------
A-|-/-/-/---4--/--/-----/----8-/-/------/--12-------/-----/-----/----16-------

D-|-7-7-8-7-7-7->10-12------15--15-14-12--------0--0--12-9-9-12----------0----
A-|--------8----------10~-12------------15-14-12-12-12---------9-12-10~-------
D-|---------------------------15---------------------------------------12-12--
G-|---------------------------------------------------------------------------
D-|---------------------------------------------------------------------------
A-|-/-----/-/--------4-----/---/----/----------8--/------/-----/-------12--/--

D-|-9-12----------------------------------------------------------------------
A-|-----9-10~-12-14^12--------------------------------------------------------
D-|---------------------------------------------------------------------------
G-|---------------------------------------------------------------------------
D-|---------------------------------------------------------------------------
A-|-----/----/------16--------------------------------------------------------
Xang
D-|---------------12-14-15-14-12-14-12---------12-15-12-0-12-0-12-9-----------
A-|-12-12-12-12-12--------------------15~-12-15--------------------12-10~-----
D-|---------------------------------------------------------------------------
G-|---------------------------------------------------------------------------
D-|---------------------------------------------------------------------------
A-|--------/-----/-------/----------4-----/----------/-----/--------8---------

D-|-----12-9-----------0-12-9-12-9-----0--------------------------------------
A-|-9-------12-12-10~-------------12-9---10~ ....-----------------------------
D-|------------------12-------------------------------------------------------
G-|---------------------------------------------------------------------------
D-|---------------------------------------------------------------------------
A-|-/-----/-----/----12--/-------/---/---16-----------------------------------
<bài viết được chỉnh sửa lúc 12.09.2008 11:39:22 bởi GuitarVongCo >

GuitarVongCo
  • Số bài : 96
  • Điểm thưởng : 0
  • Từ: 06.01.2006
Guitar Vọng Cổ Câu 4, 6 - Dây Kép Cao sang Đào - 07.01.2006 12:23:32
Guitar Vọng Cổ Câu 4, 6 - Dây Kép Cao sang Đào



Tips để Copy & Paste vào trong Word or Wordpad: Dùng font: Courier New, size 10.


D-|--------7-7-----3-2-2--------7-7-4-7-7-------------------------------------
A-|-----------7-5~0---0-3--3-0-7-------7-5~0-3--0-3-5-7-5~--------------------
D-|-7---7-7---------------2------7-------------2----------7-------------------
G-|---------------------------------------------------------------------------
D-|---------------------------------------------------------------------------
A-|16-///-4--/--/----/----8--/--/-/---12-/-----/----/----16-------------------

D-|-----7-9-10-9-7-7--------7-10-7--7---------744-7---------4-7---------------
A-|-7-10------------10~-7-10---------9-8-7-0-7-----4-7-5~-0----4-5~-7-9^7-----
D-|-------------------------------10---------------------7-7------------------
G-|---------------------------------------------------------------------------
D-|---------------------------------------------------------------------------
A-|/----/-----/----/----/--------/--/----8---/-/---/----12-/---/--/-----16----

D-|-7--------10--10-7-9-10-9-7---------7-4-4-7---------4-7--------------------
A-|--9n-9-7-7-----------------9-8-7-8p7-------4-7-5~-0----4-5~-7-9^7----------
D-|------------10-----------------------------------7-7-----------------------
G-|--------9------------------------------------------------------------------
D-|---------------------------------------------------------------------------
A-|-/--/--/-4---/---/--------/----8---/--/----/----12-/---/--/-----16---------

D-|--------7-9-10-9-7-9-7--------7-10-7---------------7-4-7--7--------------7-
A-|-777-7-7--------------10~-7-10------9-7-0-3---3-0-7-----7--5~-0-3-0-3-5-7--
D-|-------------------------------------------2-2-------------------2--------7
G-|---------------------------------------------------------------------------
D-|---------------------------------------------------------------------------
A-|---/---/----/--------4----/-------/-----/--8-/--/--/---12--/-----/----/--16
Hò (Hò này để vô cho hợp với nhac. Thật ra khuôn này Xề mới đúng)
D-|------------0---------0-3-3-0-3-2-0---------0------------------------------
A-|-----------0-5--0--3~--------------1-3-1-0-5-5-3---------------------------
D-|-7-9-7-9-0----5~-3-------3----------------------5~3p2-0--------------------
G-|-------------------------------------------------------5--3-2-0-2--7^----7-
D-|---------------------------------------------------------------------10----
A-|/----/-----/-/--/-/-/----8--/------/-------/---12---/-------/------/---8-/-

Nghĩ (Nhạc ...) xong đến

Xề
D-|-12-14-15-12--------12-15-12---------15-12-1512-0-12-9--------------10-12--
A-|-----------15~-12-15---------------12----------------12-10~-12-10-12-----10~
D-|---------------------------15-12h15----------------------------------------
G-|---------------------------------------------------------------------------
D-|---------------------------------------------------------------------------
A-|-----/----/-----/---------4----/------/-------/-------8------/----------/--

D-|-12-9-7----7------7--------------------------------------------------------
A-|-------8-7--8-7-5~---------------------------------------------------------
D-|-------------------7-------------------------------------------------------
G-|---------------------------------------------------------------------------
D-|---------------------------------------------------------------------------
A-|-/---12-/---/---/--16------------------------------------------------------

D-|------------------------------------------------------0------------------0-4h5-7-9^7-
A-|------------------------------8n---------------------8-3~-1-0------------------------
D-|-7-10-7-10-7-10-7-10-7-10-7-10-10-----------10-10--10--------5~-0h3-0---0------------
G-|---------------------------------10-10-10-10-----10------------------7-7-------------
D-|----------------------------------------------------------------------0--------------
A-|-/---------/---------/--------4----/-------/--/-----8-/---/--/-----12-/-/----/-----16

D-|-777-7-7-7-0-7-10-12---12-9-12--0-12---------------3-0-3-0---0--3----------
A-|--------8-----------10~-------12----9-12-10~-0-0h3~-------1-0-5----------5-
D-|----------------------------------------------------3------------5~-3-0h3--
G-|---------------------------------------------------------------------------
D-|---------------------------------------------------------------------------
A-|---/---/-/---------4----/-----/-----7--------8---/--/----/-12-/--/----/--16
<bài viết được chỉnh sửa lúc 04.10.2007 04:53:44 bởi GuitarVongCo >

GuitarVongCo
  • Số bài : 96
  • Điểm thưởng : 0
  • Từ: 06.01.2006
Guitar Vọng Cổ Câu 1, 2 - Dây Đào sang Kép Cao (La) 2 - 13.01.2006 06:24:38
Guitar Vọng Cổ Câu 1 & 2 - Đào sang Kép cao (La)2.



Tips để Copy & Paste vào trong Word or Wordpad: Dùng font: Courier New, size 10.


D-|-----------3-5~-7h8-0-7-----7-0-7-10-12---12-9-12--------0--0-12-----------
A-|-5-----0-5-------------8---8-----------10~-------12-9-0-0-12----9-12-10~---
D-|------0------------------7---------------------------------|-----------12--
G-|-----------------------------------------------có thể đờn câm nốt này------
D-|---------------------------------------------------------------------------
A-|16-//-/--4---/----/---/--8--/--------/----/------12---/----/----/------16--

D-|-------15-14-12-12---------------12-14-15-14-12-15-14-12--12-14-15---------
A-|-10->12-----------15~-12-15-12-15-----------------------15--------12-15----
D-|---------------------------------------------------------------------------
G-|---------------------------------------------------------------------------
D-|---------------------------------------------------------------------------
A-|------1--/------/-----4----------/------------/---------/---------8--------

D-|-12-14-15-14-12-14-12-------------0-5-4-0-0-4h5-7-9^-7---------------------
A-|---------------------14^12-10~-9---------5---------------------------------
D-|--------------------------------12-0---------------------------------------
G-|---------------------------------------------------------------------------
D-|---------------------------------------------------------------------------
A-|-------/-----------/-----/------12-/----/-----/-----16---------------------
Xang
D-|-7-7-8-7---7-0-8-7-0-7-10-12---12-0-12-9--------12-9-12-9-12----------0-12-
A-|--------8-8-----------------10~---------12-10~-9------------9-12-10~-------
D-|---------7----------------------------------------------------------12-----
G-|---------------------------------------------------------------------------
D-|---------------------------------------------------------------------------
A-|-1-----/-/-4-----/--------/----/---------8-----/---/--------/-------12---/-

D-|-9-12-9--------9--12-------------------------------------------------------
A-|-------12-9--9--12--9-10~--------------------------------------------------
D-|---------------------------------------------------------------------------
G-|---------------------------------------------------------------------------
D-|---------------------------------------------------------------------------
A-|------/-------/--------/---------------------------------------------------
Cống

D-|----------------0-----3-2-0------------------------------------------------
A-|-10~10~10~9n-0-3-5--0------3~1---1-3-1-0-5-3------------0-3~1--------------
D-|------------------5~-3--------3-3-----------5-3-0--0-3-5~------------------
G-|-------------------------------3-----------------7-------------------------
D-|--------------------------------------------------0------------------------
A-|---/----/----/--4-/--/--/----8-/-/-------/-----12-/--/--/--16--------------

Xề
D-|-0------------------5~-3---3p2-0-------------------------------------------
A-|--1n~-0-000-0--5n~3~-----3~-----1-0--0--0-0--------------------------------
D-|------------------------3----------5~-3--2---0-2-0-2-3---------------------
G-|-------2---2-------------------------------5~---------2--------------------
D-|---------------------------------------------------------------------------
A-|-1--/--/--4-/-/--/--8---/----/-----/-12--/--/--/-----16--------------------
Xang
D-|-------------------------7-9-10-9-7-10-9-7--------7-9-10--10-7-9-10-9-7----
A-|----------------7-10-7-10-----------------10~-7-10-------------------------
D-|--7-10-7-10-7-10----------------------------------------10-----------------
G-|-9-------------------------------------------------------------------------
D-|---------------------------------------------------------------------------
A-|--1----/--------/--------4--------/-------/-------/------8---/--------/----

D-|-------------7-4-4-7-------------------------------------------------------
A-|-9^7-5~-4--0--------0-4---5~-----------------------------------------------
D-|----------7-7-----------7--------------------------------------------------
G-|---------------------------------------------------------------------------
D-|---------------------------------------------------------------------------
A-|---/-----12-/--/----/----16------------------------------------------------
Xang
D-|-------------------------5~-7-9-10--10-7-9-10-9-7-----------4-4-7----------
A-|---5~-5~5~-0-5-3-0-3-5-7-------------------------9^7-5~4-0-4-----0-4---5~--
D-|----------------------------------10--------------------7-7----------7-----
G-|---------------------------------------------------------------------------
D-|---------------------------------------------------------------------------
A-|-1--/---/-4----/-------/--/--------8---/--------/--/---12-/-/----/----16---

D-|-----------5-7-5--5-7-9-10-9-7---------12-10-9-7-10-9-7--------------------
A-|-5~5~5~-4-7-----7-------------9-8-7->10----------------10-9-7-10-9-7-0-----
D-|------------------------------------------------10-------------------------
G-|---------------------------------------------------------------------------
D-|---------------------------------------------------------------------------
A-|-1---/----/----4--/---/----/------8-----/-------/---/------12--------/-----

D-|---------------------------------------------------------------------------
A-|-3-2-0----0-3-5-7-5~-------------------------------------------------------
D-|-------3-2----------7------------------------------------------------------
G-|---------------------------------------------------------------------------
D-|---------------------------------------------------------------------------
A-|-------/------/----12------------------------------------------------------

D-|-----------------------------------2-2-3-2-2--------7-747-7----------------
A-|-----------------------------0-2-3--------0-3--3-0-7-----7-5~-0-3-----3----
D-|---7-7-9-10-9-7-10-9-7-5~-5~------------------2------7-----------2-2h5--7--
G-|-----------------------------------------------------------------------5---
D-|---------------------------------------------------------------------------
A-|---1------/--------/------4----/---/-----/----8--/--/-/-12-/-----/----/-/--

D-|--10-9-7-----10--10-7-9-10-9-7-10-9-7--7-9-10----7-10-7----------4-7-4-7---
A-|-7------10~-7------------------------10------7-10------9^7-5~4-0-----------
D-|---------------10---------------------------------------------7-7----------
G-|---------------------------------------------------------------------------
D-|---------------------------------------------------------------------------
A-|/-/----/----4--/----/--------/-------8-------/--------/--/---12-/----/-----

D-|---------------------------------------------------------------------------
A-|-0-4-5-7-9^7---------------------------------------------------------------
D-|---------------------------------------------------------------------------
G-|---------------------------------------------------------------------------
D-|---------------------------------------------------------------------------
A-|-----/----16---------------------------------------------------------------

D-|-7-------------10-7-10-9-7-------------744-7---------4-7-------------------
A-|--9n-9-7-7----7-----------9-8-7-0-7-0-7-----4-7-5~-0----4-5~7-9^7----------
D-|----------10-7------------------------------------7-7----------------------
G-|--------9------------------------------------------------------------------
D-|---------------------------------------------------------------------------
A-|-1-/---/-4---/--/------/------8---/-----/---/----12-/---/--/---16----------
Xang
D-|----------------------7-9-10-9-7-10-9-7--7-9-10----7-10--10-7-9-10-9-7-----
A-|-7-777777-10-7-10-7-10-----------------10------7-10------------------------
D-|-------------------------------------------------------10------------------
G-|---------------------------------------------------------------------------
D-|---------------------------------------------------------------------------
A-|-1----/------/--------4--------/--------/------/--------8----/-------/-----

D-|------------4-4-7----------------------------------------------------------
A-|-9^7-5~4-0-4-----0-4---5~--------------------------------------------------
D-|--------7-7----------7-----------------------------------------------------
G-|---------------------------------------------------------------------------
D-|---------------------------------------------------------------------------
A-|---/---12-/-/----/----16---------------------------------------------------
<bài viết được chỉnh sửa lúc 12.09.2008 11:43:09 bởi GuitarVongCo >

GuitarVongCo
  • Số bài : 96
  • Điểm thưởng : 0
  • Từ: 06.01.2006
Guitar Vọng Cổ Câu 5 6 - Dây Đào sang Kép Cao (La) 2 - 19.01.2006 06:28:17
Guitar Vọng Cổ Câu 5 6 - Dây Đào sang Kép Cao (La) 2


Tips để Copy & Paste vào trong Word or Wordpad: Dùng font: Courier New, size 10.


D-|---------3-5~--7h9-7-9-7-----0-0-3-0--------------------0-------------------
A-|-5----0-5---------------8---0-------1-3-1-0-5-3--------0-3------------------
D-|-----0--------------------7---3----------------5~-3-0-3---5~-3-0h3-0--------
G-|----------------------------------------------------------------------------
D-|----------------------------------------------------------------------------
A-|16//-/--4----/---/-----/--8---/----/----/-----12----/--/--/--------16-------

D-|-2-3-2-0-3---3-0-------3-0-3-0---0---------------------0-5~4-0-0-4h5-7-9^7---
A-|--------3-0-3---5-3---------------3~-1-0------0---------5-----5--------------
D-|-------------------5~-3-------1b0-------0-3-5~-7-7-5~-0----------------------
G-|---------------------------------------------------------------------------
D-|---------------------------------------------------------------------------
A-|-/------/----/-----4---/-----/---/-----8--/---/--/---12-/----/-----/----16---

D-|-7-7-8-7-7-0-7-10-12------10-12---0-12-0-12-9--------12-9-9-12-------------
A-|--------8-----------10~-12-------------------12-10~-9---------9-12-12-10~--
D-|-------------------------------------------------------------------------12
G-|---------------------------------------------------------------------------
D-|---------------------------------------------------------------------------
A-|-/-----/-/---------/-----/----/------/--------/-----/---/-----/-------12---

D-|-0-9-12--------------------------------------------------------------------
A-|-------9-10~-12-14-12------------------------------------------------------
D-|---------------------------------------------------------------------------
G-|---------------------------------------------------------------------------
D-|---------------------------------------------------------------------------
A-|-/-----/----/------16------------------------------------------------------
Xề
D-|---------12-14-15-14-12-14-12--------12-15-12-0-12-0-12-9---------10-12----
A-|1212121212-------------------15~12-15--------------------12-10~-12-----10~-
D-|---------------------------------------------------------------------------
G-|---------------------------------------------------------------------------
D-|---------------------------------------------------------------------------
A-|-----/--/-------/-----------4----/----------/----/--------8------/----/----

D-|-12-9-7-------------7------------------------------------------------------
A-|-------8-7h8n-8-7-5~-------------------------------------------------------
D-|---------------------7-----------------------------------------------------
G-|---------------------------------------------------------------------------
D-|---------------------------------------------------------------------------
A-|--/--12--/----/---/-16-----------------------------------------------------
Xề
D-|--------------------------------7-9-10--10-9-10-9-7-7-9-10----7-10--10-----
A-|----------------------7-10-7-10--------------------10-----7-10-------------
D-|-7-777-77-10-7-10-7-10----------------10--------------------------10-------
G-|---------------------------------------------------------------------------
D-|---------------------------------------------------------------------------
A-|-/---/-------/--------/---------/------/---/--------/-----/--------/-------

D-|-9-7----------------------------2------------------------------------------
A-|----10-9-7-10-9-7-0---------0h2--3p2-0-------------------------------------
D-|-------------------10-9-7-5~------------2----------------------------------
G-|---------------------------------------------------------------------------
D-|---------------------------------------------------------------------------
A-|-/------12--------/-------/-----/------16----------------------------------


D-|---------------------------5~7-9-10--1097-----------------------------7----
A-|--3n-2h3p2-0-------------3---------------9^7-5~--0----3-0-3-0--0-3-5-7-9->7
D-|-5----------3-3-2h3h2-0-5----------10-------------0h2---------7------------
G-|5----------------------5---------------------------------------------------
D-|---------------------------------------------------------------------------
A-|/-/------/----4-----/---/--/---8------/-/--/----12---/------/------/------16
Xang
D-|-------------7-9-11-7-----7-9-11-7---11-9-7----------7-4-4-7---------------
A-|-7-5~-7-9-7-7---------10~------------------9n-7-5~-0--------0-4---5~-------
D-|----------------------------------11--------------7-7-----------7----------
G-|-----------9---------------------------------------------------------------
D-|---------------------------------------------------------------------------
A-|-/---/----/-4--/----/----/-------8----/---/--/---12-/--/----/----16--------
Cống
D-|------------------------------------------------------------7-4------------
A-|-5~5~5~-3-2-3-2-0---------------------------------3n-0-3-5-7---5~-3-0-3-0--
D-|-----------------3-2-0-3-2-0---------------------2-------------------------
G-|----------------------------4-5-4-2-0-2-4-020-0h2--------------------------
D-|---------------------------------------------2-----------------------------
A-|--/--/----/------4-------/------/-------/----8--/--/-----/--12---/------/--

D-|---------7-----------------------------------------------------------------
A-|--0-3-5-7-9----------------------------------------------------------------
D-|-7-------------------------------------------------------------------------
G-|---------------------------------------------------------------------------
D-|---------------------------------------------------------------------------
A-|------/---16---------------------------------------------------------------

D-|-7---------7-9-10^7--10^9-7--------7-10-7-----------4-7--------------------
A-|--9n---7-7-----------------10~-7-10------9^7-5~-4-0----4-5~-7-9-7----------
D-|-------------------10----------------------------7-7-----------------------
G-|--------9------------------------------------------------------------------
D-|---------------------------------------------------------------------------
A-|-/--/----/4-/-----/---/---8----/--------/--/----12-/---/---/---16----------
Xề
D-|-------7-9-10-9-7-9-7--7-9-10-7--7-------------4-7--7^4^2---------2------
A-|777-7-7--------------10~----------9n8-7-0-7-0-7----------32320-0h2-3p2-0-
D-|-------------------------------10------------------7----------5~--------2
G-|---------------------------------------------------------------------------
D-|---------------------------------------------------------------------------
A-|--/---/-----/-------4-/-------/--/----8---/------/--/--12-/---/---/----16

D-|---------10--10-7-9-10-9-7-10-9-7--7-9-10----7-10-7-----------4-7----------
A-|-0--3-0-7------------------------10------7-10------9^7-5~-4-0----4-5~-7-9^7
D-|---5---7---10----------------------------------------------7-7-------------
G-|--5------------------------------------------------------------------------
D-|---------------------------------------------------------------------------
A-|-/-/--/-4---/---/--------/--------8------/--------/--/----12-/---/---/---16

D-|--------7-9-10-9-7-9-7--------7-10-7---------------7-7-4-7-----------------
A-|-777-7-7--------------10~-7-10------9-7-0-3-3n-0--7-------7-5~-0-3---------
D-|-------------------------------------------2--------7-------------2->5-7-7-
G-|---------------------------------------------------------------------------
D-|---------------------------------------------------------------------------
A-|---/---/-----/-------4----/--------/----/--8---/---/-/---12----/--/----/-16
<bài viết được chỉnh sửa lúc 12.09.2008 11:45:54 bởi GuitarVongCo >

GuitarVongCo
  • Số bài : 96
  • Điểm thưởng : 0
  • Từ: 06.01.2006
Guitar Vọng Cổ Câu 1 2 - Dây Đào 2 - 19.01.2006 09:07:17
Guitar Vọng Cổ Câu 1 2 - Dây Đào 2



Tips để Copy & Paste vào trong Word or Wordpad: Dùng font: Courier New, size 10.


D-|------------12-9-----0-7---0-3-0-3-0-------------------0-------------------
A-|----------------12-10~--8-0---------1-3-1-0-5-3-------0-3------------------
D-|-12----12-12------------------3----------------5~3-0-3---5~-3-0h3-0--------
G-|---------------------------------------------------------------------------
D-|---------------------------------------------------------------------------
A-|-16-//--/--4---/---/---/--8---/----/----/-----12---/--/--/--------16-------


D-|--------0------------0-3-2-0-------------0--------------------------7-9^7--
A-|---0-0-3-5--0-----0-3-------1---1-3-1-0-5-5-3-----------5-8-5-5-8->9-------
D-|----3-----5~-3-0-3-----------3-3-------------5-3-0-3-5-7-----7-------------
G-|--2---------------------------3--------------------------------------------
D-|-0-------------------------------------------------------------------------
A-|-/-/-/---4--/--/-----/------8-/-/-------/----12------/------/------/---16--
Xang
D-|-7-7-8-7---7-0-7-10-12------10-12-0-12-0-12-9------0-12-9-9-12-------------
A-|---------8------------10~-12-----------------12-10~-----------9-12-10~-----
D-|----------------------------------------------------------------------12---
G-|---------------------------------------------------------------------------
D-|---------------------------------------------------------------------------
A-|-/-----/---/---------4-----/----/----/--------8----/----/-----/-------12---

D-|-0-12-0-12-9---------9--12-------------------------------------------------
A-|------------12-9---9--12--9-10~--------------------------------------------
D-|----------------12---------------------------------------------------------
G-|---------------------------------------------------------------------------
D-|---------------------------------------------------------------------------
A-|----/--------/-------/------16---------------------------------------------
Cống
D-|----------------------3-0-3-0--3-0--------------------------------0-2-3----
A-|-10~-10~-10~-9n-0-3n-3-------------3-1-0------0--------------0-1-------1---
D-|-----------------------3-----3----------0-3-5~-7-7-5~-0-0-3-5~-------------
G-|---------------------------------------------------------------------------
D-|-------------------------------------------------------0-------------------
A-|---/------/-----/----4-/----/--/-------8--/---/--/---12-/---/-----/----16--
Khuôn Xề bắt đầu & nghĩ
D-|-0-------------------------------------------------------------------------
A-|--1n~0-000-0---------------------------------------------------------------
D-|---------------------------------------------------------------------------
G-|------2---2----------------------------------------------------------------
D-|---------------------------------------------------------------------------
A-|---------------------------------------------------------------------------
Xang
D-|-15-12-15-14-12--12-14-15------12-15-12-------------------12-14-15--15-----
A-|---------------15--------12-15-----------------------12-15-----------------
D-|---------------------------------------15-12-15-12-15-------------15-------
G-|---------------------------------------------------------------------------
D-|---------------------------------------------------------------------------
A-|-/--------/----------/---------4--------/--------/--------/-------8----/---

D-|-14-12-----0-12-----------0-12-0-12-9-----------9--12----------------------
A-|------14-------9-12-10~--------------12-9-----9--12--9-10~-----------------
D-|------------------------12----------------12-------------------------------
G-|---------------------------------------------------------------------------
D-|---------------------------------------------------------------------------
A-|-------/-------/--------12---/--------/---------/-------16-----------------
Xang
D-|-------------------3-0-3-0-3-0----------------------------------0----------
A-|-10~10~10~9n-0-3n-3-----------3-1-0-----------5-8-7-5----------0-1-0-1-----
D-|--------------------3-----3---------5-3-0-3-57-------8-75~0-0-3-------0305~
G-|---------------------------------------------------------------------------
D-|-----------------------------------------------------------0---------------
A-|---/----/----/----4-/----/-/------8-----/-----/------/---12-/----/----/--16

D-|----------0-3-0-3-0-----0-12-10-12-15-10-12--12-9-12------0----------------
A-|---0----0----------3-1-0----------------------------12-9-0---------5-------
D-|5~----0--3-----3---------------------------12--------------5~-3-0h3--------
G-|----2----------------------------------------------------------------------
D-|-------0-------------------------------------------------------------------
A-|/-/-/--4-/----/-/------8------/----------/----/-----12---/-/----/--16------

D-|---------0----------------------------------0-3-2-0-----------0------------
A-|-5-5-5--0-3~-1-0---------0---0-----------0-3-------5-3-------0-3-----------
D-|------0----------5~-0h2---3p2--3n-0-3-0-3-------------5~3-0-3---5~-3-0h3-0-
G-|------------------------------2--------------------------------------------
D-|---------------------------------------------------------------------------
A-|-/--/-/--4---/---/-------/----8---/------/------/----12---/--/--/-------16-

D-|----0------7-7->10-12-0-12-0-12-9------12-9-9-12---------------0-5-4-0-0---
A-|-0-3-5--0-8----------------------12~10~----------9-12-10~-10~---------5----
D-|------5~-7---------------------------------------------------12------------
G-|---------------------------------------------------------------------------
D-|---------------------------------------------------------------------------
A-|-/--/-/--4-/--------/----/--------8--/----/------/--------12---/-----/-----

D-|-4h5-7-9^7-----------------------------------------------------------------
A-|---------------------------------------------------------------------------
D-|---------------------------------------------------------------------------
G-|---------------------------------------------------------------------------
D-|---------------------------------------------------------------------------
A-|---/----16-----------------------------------------------------------------

D-|-7---7-8-7-7-0-7-10-12------10-12-0-12-0-12-9------0-12-9-9-12----------0--
A-|----------8-----------10~-12-----------------12-10~-----------9-12-10~-----
D-|----------------------------------------------------------------------12---
G-|---------------------------------------------------------------------------
D-|---------------------------------------------------------------------------
A-|-/-------/-/---------4-----/----/----/--------8----/----/-----/-------12---
.....................................Xang

D-|---9-12--------------|------------12-14-15-14-12-14-12---------12-15-12-0-12-0
A-|--------9-10~12-12-12|121212-12-12--------------------15~-12-15---------------
D-|-12------------------|--------------------------------------------------------
G-|---------------------|--------------------------------------------------------
D-|---------------------|--------------------------------------------------------
A-|-/------/---/------16|----/-----/--------/-----------4-----/----------/----/--

D-|-12-9--------12-9-----------0-12-9-12-9-----0------------------------------
A-|-----12-10~-9----12-12-10~-------------12-9---10~-....---------------------
D-|--------------------------12-----------------------------------------------
G-|---------------------------------------------------------------------------
D-|---------------------------------------------------------------------------
A-|------8-----/---/----/----12---/------/---/---16---------------------------
<bài viết được chỉnh sửa lúc 12.09.2008 11:50:03 bởi GuitarVongCo >

GuitarVongCo
  • Số bài : 96
  • Điểm thưởng : 0
  • Từ: 06.01.2006
Guitar Vọng Cổ Câu 1 2 - Kép cao (LA) sang Đào #3 - 03.02.2006 06:28:16

Guitar Vọng Cổ Câu 1 2 - Kép cao (La) sang Đào #3



Tips để Copy & Paste vào trong Word or Wordpad: Dùng font: Courier New, size 10.


D-|---------7-7-7---3-2-2--------7-7-4-7--7--------------7--------------------
A-|------------7-5~0---0-3-3-0--7-------7--5~-0-3-0-3-5-7---------------------
D-|-7----7-7--------------2-------7--------------2--------7-------------------
G-|---------------------------------------------------------------------------
D-|---------------------------------------------------------------------------
A-|16-//-/-4--/--/----/---8--/---/-/---12--/-----/----/---16------------------

D-|-------10-----------10-7-9-10-9-7-------------7-4-4-7---------4-7----------
A-|-7h10-12-12-10----10-------------9-8-7-0-7-0-7-------4-7-5~-0----4-5~-7-9^7
D-|-------------12~-10----------------------------------------7-7-------------
G-|---------------------------------------------------------------------------
D-|---------------------------------------------------------------------------
A-|/---/---/-----4----/---/--------/----8---/------/----/----12-/---/---/---16
Xang
D-|-7--------10--10-7-9-10-9-7-------------7-4-4-7----------4-4-7-------------
A-|--9n-9-7-7-----------------9-8-7-0-7-0-7-------4-7-5~-0-4-----0-4---5~-----
D-|------------10---------------------------------------7-7----------7--------
G-|--------9------------------------------------------------------------------
D-|---------------------------------------------------------------------------
A-|-/--/--/-4---/---/--------/----8---/------/----/----12-/-/----/----16------
Cống
D-|------------------------------------4-7---------4-7------7-----------------
A-|-5~-5~-5~-0---3-0----3-3-0-3-3n0-4-7---4-7-5~-0----4-5~-7-9----------------
D-|-----------0h2------5-5-5---2----------------7-7---------------------------
G-|-----------------5-5-------------------------------------------------------
D-|---------------------------------------------------------------------------
A-|--/----/-----/--4--/-/-/----8--/---/---/----12-/---/---/-16----------------
Xề
D-|-7-----7----10-9-10-9-7--7-10----7-10-------------7-9-10-9-7---------------
A-|--9n7---9-7------------10----7-10-----10-7-10-7-10----------10^9-7--10-9-7-
D-|-----10------------------------------10------------------------------------
G-|---------------------------------------------------------------------------
D-|---------------------------------------------------------------------------
A-|-/-/---/--4----/--------/----/-------8---/--------/--------/----12---------

D-|------------2--------------------------------------------------------------
A-|-0-3-2-0-0h2-3p2-0---------------------------------------------------------
D-|--------5~--------2(không đàn nốt xề này mà đàn nốt hò ở dưới của dây đào)
G-|---------------------------(để khi chuyển sang Đào nghe liên tục hơn)
D-|---------------------------------------------------------------------------
A-|-/------/---/-----16-------------------------------------------------------
Xang
D-|----------------------------------------3-0--7-10-12---15-14-12------------
A-|------0--------------------------0-3-0-3---5--------10~--------14^12-10~9--
D-|-0h2-3-2-3-2-0------------0-3-0-3----------------------------------------12
G-|--------------4-5-4-2222-5-------------------------------------------------
D-|---------------------------------------------------------------------------
A-|16-----/------/------/----4------/------/----/-----8----/-----/----/-----12

D-|-0-12-0-12-9---------9---12------------------------------------------------
A-|------------12-9---9---12--9-10~-------------------------------------------
D-|----------------12---------------------------------------------------------
G-|---------------------------------------------------------------------------
D-|---------------------------------------------------------------------------
A-|----/-------/--------/-------16--------------------------------------------
Xang

D-|---------10h12-10~12h14-15-12------------12-15-12-------------0-12-0-12-9--
A-|-10~--8-8---------------------15ng--12-15--------14^12-10~-9---------------
D-|------------------------------------------------------------12-------------
G-|---------------------------------------------------------------------------
D-|---------------------------------------------------------------------------
A-|/-/-/4--/-------/-----/-----8--------/---------/-----/------12---/---------

D-|---------------------------------------------------------------------------
A-|-12n~-9-----10~------------------------------------------------------------
D-|--------12-9---------------------------------------------------------------
G-|---------------------------------------------------------------------------
D-|---------------------------------------------------------------------------
A-|--/------/---16------------------------------------------------------------

D-|--------------------3-0-3-0-3-0-----0-12-10-12-15-10-12--12-9-12------0--------
A-|-10~10~10~-9n-0-3n-3-----------3-1-0----------------------------12-9-0--------5
D-|---------------------3-----3---------------------------12--------------5~3-0h3-
G-|-------------------------------------------------------------------------------
D-|-------------------------------------------------------------------------------
A-|---/----/-----/----4-/----/-/------8------/-----------/---/-----12---/-/---/--16

D-|-5-5-3-2-3-2-0------7------7---0-030---------0-----------------------------
A-|--------------3~-5-7-8-7-5~---0-----1-0----0---3---------------------------
D-|--5-------------------------7---3-------0-3-----5~-3-0---------------------
G-|---------------------------------------2-----------------------------------
D-|---------------------------------------------------------------------------
A-|-/-/---/------4----/-/---/--8-/-/--/-12-/--/----/---16---------------------


D-|--232-0--3----3-0-------------0-3---023--2-3-20---------0------------------
A-|-------3--0-3----5-3-------0-3----3~---1-------1-3-1-0-5-5-3-----------5-8-
D-|--------------------5~3-0-3------3------3-------------------5-3-0-3-5-7----
G-|---------------------------------------------------------------------------
D-|---------------------------------------------------------------------------
A-|--/----/------/-----4------/-----/-/---8-/-----/-------/---12-------/------

D-|---------7-9^7-------------------------------------------------------------
A-|-5-5-8->9------------------------------------------------------------------
D-|--7------------------------------------------------------------------------
G-|---------------------------------------------------------------------------
D-|---------------------------------------------------------------------------
A-|-/------/---16-------------------------------------------------------------

D-|-7-7-8-7-7-0-7-10-12------10-12-0-12-0-12-9--0--0--12-9-9-12----------0----
A-|--------8-----------10~-12-----------------12-12-12---------9-12-10~-------
D-|--------------------------------------------------------------------12-12--
G-|---------------------------------------------------------------------------
D-|---------------------------------------------------------------------------
A-|-/-----/-/---------4-----/----/----/-------8--/-------/-----/-------12--/--

D-|-9-12----------------------------------------------------------------------
A-|-----9-10~-12-14-12--------------------------------------------------------
D-|---------------------------------------------------------------------------
G-|---------------------------------------------------------------------------
D-|---------------------------------------------------------------------------
A-|-----/----/------16--------------------------------------------------------
Xang
D-|-------------12-14-15-14-12-14-12--------12-15-12-0-12-0-12-9--------12-9-9-12-
A-|-121212-12-12--------------------15~12-15--------------------12-10~9-----------
D-|-------------------------------------------------------------------------------
G-|-------------------------------------------------------------------------------
D-|-------------------------------------------------------------------------------
A-|------/----/--------/-----------4----/---------/----/---------8----/----/------

D-|-----------0-12-9-12-9----0------------------------------------------------
A-|-9-12-10~-------------12-9-10~-...-----------------------------------------
D-|---------12----------------------------------------------------------------
G-|---------------------------------------------------------------------------
D-|---------------------------------------------------------------------------
A-|-/------12----/------/---/--16---------------------------------------------
<bài viết được chỉnh sửa lúc 12.09.2008 11:51:54 bởi GuitarVongCo >

GuitarVongCo
  • Số bài : 96
  • Điểm thưởng : 0
  • Từ: 06.01.2006
Guitar Vọng Cổ Câu 5 6 - Đào sang Kép cao (La) # 3 - 09.02.2006 02:05:21
Guitar Vọng Cổ Câu 5 6 - Đào sang Kép cao (La) # 3



Tips để Copy & Paste vào trong Word or Wordpad: Dùng font: Courier New, size 10.

.........................................................Có thể làm câm nốt này
Hò......................................................... |
D-|------------3-5~-7h8-0-7-----7-0-7-10-12---12-9--------0-----0-12----------
A-|-5------0-5-------------8---8-----------10~----12-9-0-0-12-------9-12-10~--
D-|-------0------------------7---------------------------------------------12-
G-|---------------------------------------------------------------------------
D-|---------------------------------------------------------------------------
A-|16-//--/--4---/----/---/--8--/---------/----/--12---/----/-------/-------16

D-|-------15-14-12-14-15-14-12-14-12---12-14-15-12-15-0-15-12-0-12-9----------
A-|-10->12--------------------------15~-----------------------------12-9-0----
D-|---------------------------------------------------------------------------
G-|---------------------------------------------------------------------------
D-|---------------------------------------------------------------------------
A-|------/--/----------/-----------4--/----------/----------/-------8---------


D-|--0-3-2-0---------0---------------------------7-9^7------------------------
A-|-3-------1-3-1-0-5-5-3------------5-8-5-5-8->9-----------------------------
D-|----------------------5~-3-0-3-5-7-----7-----------------------------------
G-|---------------------------------------------------------------------------
D-|---------------------------------------------------------------------------
A-|--/------/-------/---12--------/------/------/---16------------------------


D-|-7-7-8-7--------3-030---023---------0------------000-00--4h5-7-9^7---------
A-|--------8-7-5-3~-----3~------1---1h3-3p1-0---------------------------------
D-|-----------------3------------3-3---------5~-0-----------------------------
G-|-------------------------------3--------------7----------------------------
D-|-----------------------------------------------0---------------------------
A-|-/-----/--/---4--/--/--/-----8-/-/------/---12-/---/-------/-----16--------
Xề
D-|7-7-7-7--7-0-7-10-12-----10-12-0-12-0-12-9--0-12-10-12-15-10-12-12-9-------
A-|--------8-----------10~12-----------------12------------------------12-9-5~
D-|---------------------------------------------------------------12----------
G-|---------------------------------------------------------------------------
D-|---------------------------------------------------------------------------
A-|--/---/--/---------4----/----/----/-------8-------/-----------/--/--12---/-

D-|-7-------------------------------------------------------------------------
A-|---9-7-5~------------------------------------------------------------------
D-|---------7-----------------------------------------------------------------
G-|---------------------------------------------------------------------------
D-|---------------------------------------------------------------------------
A-|-/--/---16-----------------------------------------------------------------
Xề
D-|---------------------------------------7-9-10-9-7--------------------------
A-|------------------------7-10~-7-10-7-10----------10-9-7-10-9-7-0-----------
D-|---777777-7---7-7-10-7^7-7--------------------------------------10-9-7-5~--
G-|-------------9-9-9---------------------------------------------------------
D-|---------------------------------------------------------------------------
A-|--/-/---/-4--/--/----/---8----/--------/--------/----12--------/-------/---

D-|----2----------------------------------------------------------------------
A-|-0h2-3p2-0-----------------------------------------------------------------
D-|----------2----------------------------------------------------------------
G-|---------------------------------------------------------------------------
D-|---------------------------------------------------------------------------
A-|----/----16----------------------------------------------------------------

Xê (nghỉ 6 nhịp con đầu)
D-|--------10-7-10-9-7---7-10------7-10-7-----------------------------7-------
A-|-------------------10~------7-10------9^7-5~-4------3-0-3-0-0-4h5-7-9->7---
D-|----------------------------------------------7-0h2--------7---------------
G-|---------------------------------------------------------------------------
D-|---------------------------------------------------------------------------
A-|-///4//----/--------8-------/--------/--/----12----/------/-----/-----16---
Xang
D-|--------------------10-9-7------2--------------7-4-4-7---------------------
A-|-7-5~-7-9--7--7----7------97-0-3--0-3-5-7-5~-0--------0-4---5~-------------
D-|---------------10-7--------------2---------7--7-----------7----------------
G-|-------------9-------------------------------------------------------------
D-|---------------------------------------------------------------------------
A-|-/---/-----/--4---/--/---/-8--/--/----/---12--/--/----/-----16-------------
Cống
D-|--------------------------------------------4-7---------4-7------7---------
A-|-5~-5~-5~-3-2-3-2-0--3--3-0-3-0-0-3-3n-0-4-7---4-7-5~-0----4-5~-7-9--------
D-|-------------------5~--5-------5---2-----------------7-7-------------------
G-|----------------------5----------------------------------------------------
D-|---------------------------------------------------------------------------
A-|--/----/----/------4--/-/-----/----8---/---/---/----12-/---/---/-16--------

D-|---7----7---7-9-11^---11^9-7-9-7---7-9-11-7-----------4-7------------------
A-|5h7-9-7--9-7-------8n-----------10~--------9^7-5~-4-0----4-5~-7-9^7--------
D-|---------------------------------------------------7-7---------------------
G-|-------9-------------------------------------------------------------------
D-|---------------------------------------------------------------------------
A-|--/-/---/--4--/----/----/------8--/-------/--/----12-/---/---/---16--------
Xề
D-|--------7-9-10-9-7-9-7--------7-10-7--7-------------5-7--7^4^2-----2-------
A-|-777-7-7--------------10~-7-10---------9-8-7-0-7-0-7---5~-----3-0h2-3h20---
D-|------------------------------------10----------------------------------3-2
G-|---------------------------------------------------------------------------
D-|---------------------------------------------------------------------------
A-|---/---/-----/-------4----/--------/--/----8---/------/--/--12-/---/--/--16

D-|---------------------2-----------------------------4-7---------4-7---------
A-|------------------023-3-2-0-3-2-0---------0-3-0-4-7---4-7-5~-0----4-5~7-9^7
D-|-2-22222-5-2-5-2-5---------------3-2-0-2-3-2----------------7-7------------
G-|---------------------------------------------------------------------------
D-|---------------------------------------------------------------------------
A-|-/---/-----/------4---/-------/------/-----8--/---/---/----12-/---/--/---16

D-|---14-11-9-7--------7-9-10-9-7-9-7----------------------------2------------
A-|10~---------10~-7-10--------------9--7-0-3--1-1-1-1-1-0--0-2-3-3-----------
D-|------------------------------------------2-------------5~------2->5-7-----
G-|---------------------------------------------------------------------------
D-|---------------------------------------------------------------------------
A-|-/----/----/----4--------/-------/-----/--8-/---/---/--12--/--/-/---16-----
<bài viết được chỉnh sửa lúc 12.09.2008 11:54:03 bởi GuitarVongCo >

GuitarVongCo
  • Số bài : 96
  • Điểm thưởng : 0
  • Từ: 06.01.2006
Guitar Vọng Cổ câu 5 6 - Đào sang Kép cao (La) #4 - 18.02.2006 00:54:53
Guitar Vọng Cổ câu 5 6 - Đào sang Kép cao (La) #4



Tips để Copy & Paste vào trong Word or Wordpad: Dùng font: Courier New, size 10.


D-|----------0-4-4h7-9-0-7------0-3-0--------------------0--------------------
A-|-5-----0-5-------------8--0-------1-3-1-0-5-3--------0-3-------------------
D-|------0-----------------7--3-----------------5~-3-0-3---5~-3-0h3-0---------
G-|---------------------------------------------------------------------------
D-|---------------------------------------------------------------------------
A-|16-//-/--4-/------/---/-8--/----/-----/-----12----/--/--/-------16---------

D-|-2-3-2-0-3---3-0-------3-0-3-0---0-----0-12-10-12-15-10-12-9--12------------
A-|--------3-0-3---5-3---------------3~1-0---------------------12--9-12-10~10--
D-|-------------------5~-3-------1b0-----------------------------------------12
G-|----------------------------------------------------------------------------
D-|----------------------------------------------------------------------------
A-|-/------/----/-----4---/-----/---/----8------/-----------/------/-------12--

D-|-0-5-4-0-0-4h5-7-9^7-------------------------------------------------------
A-|--------5------------------------------------------------------------------
D-|---------------------------------------------------------------------------
G-|---------------------------------------------------------------------------
D-|---------------------------------------------------------------------------
A-|-/-----/-----/----16-------------------------------------------------------

D-|-7-7-8-7---7-0-8-7-0-7-10-12---12-0-12-9--------12-9-----------0---------------
A-|--------8-8-----------------10~---------12-10~-9----12-12-10~-----9-10~12-14-12
D-|---------7---------------------------------------------------12-12-------------
G-|-------------------------------------------------------------------------------
D-|-------------------------------------------------------------------------------
A-|-/-----/-/-4-----/---------/----/--------8-----/---/----/----12--/-/--/------16
Xề
D-|-------------12-14-15-14-12-14-12--------12-15-12-0-12-0-12-9---------10-12----
A-|-121212-12-12--------------------15~12-15--------------------12-10~-12---------
D-|---------------------------------------------------------------------------12--
G-|-------------------------------------------------------------------------------
D-|-------------------------------------------------------------------------------
A-|------/----/-------/------------4----/----------/---/--------5-------/----/----

D-|-12^9^7^-------------7-----------------------------------------------------
A-|--------8-7h8n-8-7-5~------------------------------------------------------
D-|----------------------7----------------------------------------------------
G-|---------------------------------------------------------------------------
D-|---------------------------------------------------------------------------
A-|-/---12---/----/---/-16----------------------------------------------------
Xề
D-|-------------------------------7-9-10--10-7-10-9-7--7-9-10----7-10-7--7----
A-|----------------------7-10-7-10-------------------10------7-10---------10-9
D-|-7-77777--10-7-10-7-10---------------10------------------------------------
G-|--------------------------------------------------------------------10-----
D-|---------------------------------------------------------------------------
A-|-/---/-------/--------4--------/------/---/--------8------/--------/--/----

D-|---------------------------------------------------------------------------
A-|-7-10-9-7-0--------------7-------------------------------------------------
D-|-----------10-9-7-5~-7h9---------------------------------------------------
G-|--------------------------9------------------------------------------------
D-|---------------------------------------------------------------------------
A-|12--------/-------/----/-16------------------------------------------------

D-|----------------------------4-7---------4-7-4-7----------------------------
A-|--------3n-0-3-0-0-3-3-0-4-7---4-7-5~5-0-------0-4h5-7-9^7-----------------
D-|----5-5---------5---2-----------------7------------------------------------
G-|--5------------------------------------------------------------------------
D-|---------------------------------------------------------------------------
A-|//-/-4-/-/-----/----8--/---/---/----12-/----/------/-----16----------------
Xang
D-|-7--------10--10-7-9-10-9-7-10-9-7--7-9-10----7-10-7-----------4-4-7-------
A-|--9n-9-7-7------------------------10------7-10------9^7-5~4-0-4-----0-4---5~
D-|------------10---------------------------------------------7-7----------7--
G-|--------9------------------------------------------------------------------
D-|---------------------------------------------------------------------------
A-|-/--/--/-4---/---/--------/--------8------/--------/--/---12-/-/----/----16
Cống
D-|----------------------------------4-7---------4-7------7-------------------
A-|-5~5~5~-0---3-0----3-3-0-3-3-0-4-7---4-7-5~-0----4-5~-7-9------------------
D-|---------0h2------5-5-5---2----------------7-7-----------------------------
G-|---------------5-5---------------------------------------------------------
D-|---------------------------------------------------------------------------
A-|--/--/----/---4--/-/-/----8--/---/---/----12-/---/---/--16-----------------

D-|-----------7-9-11^-7-9-11-9-7-----------7-4-4-7---------4-7----------------
A-|-9n-9-7-777------------------9-8-7-07-07-------4-7-5~-0----4-5~-7-9^7------
D-|-----------------------------------------------------7-7-------------------
G-|-------9-------------------------------------------------------------------
D-|---------------------------------------------------------------------------
A-|-/--/--/--4--/-----/--------/----8--/-----/----/----12-/---/---/---16------
Xề
D-|--------7-9-10-9-7-9-7--------7-10-7--10-7------------5-7--7^-4^-2^--------
A-|-777-7-7--------------10~-7-10------------9-8-7-0-7-07---5~--------3-2h3n3-
D-|------------------------------------10-------------------------------------
G-|---------------------------------------------------------------------------
D-|---------------------------------------------------------------------------
A-|---/---/-----/-------4----/--------/---/------8---/-----/--/----12---/---/-

D-|----2----------------------------------------------------------------------
A-|-2-0-----------------------------------------------------------------------
D-|-----2---------------------------------------------------------------------
G-|---------------------------------------------------------------------------
D-|---------------------------------------------------------------------------
A-|---/-16--------------------------------------------------------------------

D-|---------10--10-7-9-10-9-7-----------7-4-4-7---------4-7-------------------
A-|-0--3-0-7-----------------9-8-7-07-07-------4-7-5~-0----4-5~-7-9^7---------
D-|---5---7---10-------------------------------------7-7----------------------
G-|--5------------------------------------------------------------------------
D-|---------------------------------------------------------------------------
A-|-/-/--/-4--/----/--------/----8--/-----/----/----12-/---/---/----16--------

D-|11-9--7-911^7-------7-10-7-----------------5-7-9-10-9-7---------------10---------
A-|----11-------10~7-10------9-7-0-3-3-0-3-5-7-----------10-9-7--------12-----------
D-|-11------------------------------2--------------------------10-7->10----12~->10-7
G-|---------------------------------------------------------------------------------
D-|---------------------------------------------------------------------------------
A-|--/--/--/---4---/--------/----/--8--/------/--------/-----12---/-----/---/------16
<bài viết được chỉnh sửa lúc 12.09.2008 11:57:10 bởi GuitarVongCo >

GuitarVongCo
  • Số bài : 96
  • Điểm thưởng : 0
  • Từ: 06.01.2006
Guitar Vọng Cổ Câu 5 6 - Kép cao (La) sang Đào - 08.03.2006 01:41:12
Guitar Vọng Cổ Câu 5 6 - Kép cao (La) sang Đào



Tips để Copy & Paste vào trong Word or Wordpad: Dùng font: Courier New, size 10.


D-|---------7-7-----3-2-2--------7-7-4-7--------------------------------------
A-|------------7-5~0---0-3-3-0--7-------7-0----7-7----------------------------
D-|-7----7-7--------------2-------7--------7-10---10-7h10-7-------------------
G-|---------------------------------------------9-----------------------------
D-|---------------------------------------------------------------------------
A-|16-//-/-4--/--/----/---8--/---/-/---12--/---/-/-------16-------------------

D-|----10-7-9-10-9-7--------7-10-7--7-------------7-4-4-7---------4-7---------
A-|-7-10------------10~-7-10---------9-8-7-0-7-0-7-------4-7-5~-0----4-5~7-9^7
D-|-------------------------------10---------------------------7-7------------
G-|---------------------------------------------------------------------------
D-|---------------------------------------------------------------------------
A-|/--/---/--------4----/--------/--/----8---/------/----/----12-/---/--/----16

D-|-7------------10-7-10-9-7----------7-4-4-7---------4-7---------------------
A-|--9-7-777----7-----------10-9-7-0-7-------4-7-5~-0----4-5~7-9^7------------
D-|---------10-7-----------------------------------7-7------------------------
G-|-----9---------------------------------------------------------------------
D-|---------------------------------------------------------------------------
A-|-/-/-/--4---/--/------/-------8---/--/----/----12-/---/--/----16-----------
Xề
D-|-------7-9-10-9-7-9-7--------7-10-7--7-------------5-7-7^4^2---------------
A-|777-7-7--------------10~-7-10---------9-8-7-0-7-0-7---5~----3-2h3n-3-2-0---
D-|-----------------------------------10-----------------------------------3-2
G-|---------------------------------------------------------------------------
D-|---------------------------------------------------------------------------
A-|--/---/-----/-------/----/--------/--/----/---/------/-/---/--/----/---/--16
Xề

D-|--------------0-----3-0-3-2-0----------------------------------------------
A-|-------------0-5--0----------1-------1-3-1-0-5-3--0--0-0-------------------
D-|-2-2-3-2-3-0----5~-3----------3-3-0-3-----------5~-3~-2---0-2-0-2-3--------
G-|-------------------------------3------------------------5~---------2-------
D-|------------0--------------------------------------------------------------
A-|-/-----/----/-4-/--/--/------8-/--/------/-----12--/----/---/-----16-------

D-|---------------------------------------3-5-3-20-3-2-0-0---0-3-2-0---------0--
A-|--------------------------------3-5-3-5--------------3-0-3-------1-3-1-0-5-5-
D-|-3-2-0-3-2-0-3-2-0-------3-5-3-5---------------------------------------------
G-|------------------5-7-5-7----------------------------------------------------
D-|-----------------------------------------------------------------------------
A-|---/-------/------/------4------/------/------/------8----/------/-------/---

D-|-------------------------7-9^-7--------------------------------------------
A-|-3-----------5-8-5-5-8->9--------------------------------------------------
D-|--5-3-0-3-5-7-----7--------------------------------------------------------
G-|---------------------------------------------------------------------------
D-|---------------------------------------------------------------------------
A-|-12-------/------/------/----16--------------------------------------------
Xang
D-|-7-787-7-0-7-10-12---15^12-14-15^14-15-14-12--12-14-15----12-15-12---------
A-|------8-----------10~-----------------------15-------12-15--------14^12-10~
D-|---------------------------------------------------------------------------
G-|---------------------------------------------------------------------------
D-|---------------------------------------------------------------------------
A-|-/---/-/---------4----/-----/-----/----------8--------/----------/----/----

D-|----0-12-9-12-9----0-------------------------------------------------------
A-|-9-------------12-9-10~----------------------------------------------------
D-|--12-----------------------------------------------------------------------
G-|---------------------------------------------------------------------------
D-|---------------------------------------------------------------------------
A-|--12---/------/---/-16-----------------------------------------------------
Cống

D-|------------------3-0-3-0---0----------------------------------------0-2-3-
A-|-10~10~10~9n0-3n-3-----------3~1-0-----------5-8-7-5--------------0-1-----1
D-|-------------------3-----1p0------5-3-0-3-5-7-------8-7-5~-0-0-3-5~--------
G-|---------------------------------------------------------------------------
D-|----------------------------------------------------------0----------------
A-|---/----/---/----4-/----/---/----8----/------/------/-----12-/---/---/---16

D-|-0---------3-0-3-0---0-------------------0-7-4-7-0-4h5-7-9^7---------------
A-|--1n~0-000------------3~1-0-----0---------5--------------------------------
D-|----------3-------1b0------0-3-5~7-7-5~-0----------------------------------
G-|------2--------------------------------------------------------------------
D-|---------------------------------------------------------------------------
A-|-/--/-/--4-/-----/---/----8--/--/--/---12-/--/-------/-----12--------------
Xề
D-|-777-7-7---7-0-7-10-12------10-12--12-9-12------0-0-3-0--------------------
A-|---------8------------10~-12--------------12-8-7-3~----3~-1-0--------------
D-|---------------------------------12--------------------------0-5n~3-5n-5-3-
G-|--------------------------------------------------------------------------2
D-|---------------------------------------------------------------------------
A-|---/---/---/--------4------/----/---/------8---/-/----/--12--/----/----/--16

D-|----------------------------35320--0-2-3----------------0-7-4-7-0-4h5-7-9^7
A-|---------------------3-5-3-5-----3~-----1---1^0----------5-----------------
D-|----------3-5-3-5-3-5--------------------3-3---5-3-0-3-0-------------------
G-|-2-2-5-2-5--------------------------------3--------------------------------
D-|---------------------------------------------------------------------------
A-|-/-----/------/------4------/---/-/-----8-/-/--/------12-/--/-------/----16

D-|-777-7-7-7-0-7-10-12---12-9-12--0-12----------------3-0-3-0---0--3---------
A-|--------8-----------10~-------12-----9-12-10~-0-3n-3-------1-0-5----------5
D-|-----------------------------------------------------3------------5~-3-0h3-
G-|---------------------------------------------------------------------------
D-|---------------------------------------------------------------------------
A-|---/---/-/---------4----/------/-----/--------8----/-/----/-12-/--/----/--16
<bài viết được chỉnh sửa lúc 04.10.2007 02:44:19 bởi GuitarVongCo >

GuitarVongCo
  • Số bài : 96
  • Điểm thưởng : 0
  • Từ: 06.01.2006
Guitar vọng cổ cau 3, 4-dây đào sang kép cao (La) - 18.03.2006 00:35:38
Guitar vọng cổ cau 3, 4-dây đào sang kép cao (La)




Tips để Copy & Paste vào trong Word or Wordpad: Dùng font: Courier New, size 10.



D-|---------0--------------------0-320--------------0-------------------------
A-|-5---5-0---3~-1-0----0-------0-----5-3--------0-3--3-----------------------
D-|------0----------5~-0-3-3-0-3---------5~-3-0-3------5~3-0h3-0--------------
G-|-----------------------2---------------------------------------------------
D-|---------------------------------------------------------------------------
A-|16-//-/--4----/--/---/-8--/--/---/---12----/--/-----/------16--------------

D-|-2-3-2-0-3---3-0-------3-0-3-0---0------0-12-10-12-15-10-12-9--12----------
A-|--------3-0-3---5-3---------------3~-1-0---------------------12--9-12-10~10
D-|-------------------5~-3-------1b0------------------------------------------12
G-|---------------------------------------------------------------------------
D-|---------------------------------------------------------------------------
A-|-1------/----/-----4---/-----/---/-----8-----/------------/------/-------12

D-|-0-5-4-0-0-4h5-7-9^7-------------------------------------------------------
A-|--------5------------------------------------------------------------------
D-|---------------------------------------------------------------------------
G-|---------------------------------------------------------------------------
D-|---------------------------------------------------------------------------
A-|-/-----/-----/-----16------------------------------------------------------

D-|-7-7-8-7-7-0-7-10-12------10-12-0-12-0-12-9--------12-9-9-12---------------
A-|--------8-----------10~-12-----------------12-10~-9---------9-12-10~-------
D-|----------------------------------------------------------------------12---
G-|---------------------------------------------------------------------------
D-|---------------------------------------------------------------------------
A-|-/-----/-/--------4------/----/----/-------8------/---/-----/---------12---

D-|-0--9-12-----7-9^7---------------------------------------------------------
A-|--------9-10~--------------------------------------------------------------
D-|--12-----------------------------------------------------------------------
G-|---------------------------------------------------------------------------
D-|---------------------------------------------------------------------------
A-|---/----/---/---16---------------------------------------------------------

D-|-777-7-7-12-14-15-14-12-14-12---------12-15-12---------------3-0-3-0---0-3-
A-|-----------------------------15~-12-15--------14^12-10~-0-0h3-------1-0-5--
D-|--------------------------------------------------------------3------------
G-|---------------------------------------------------------------------------
D-|---------------------------------------------------------------------------
A-|---1---/-------/-----------4-----/----------/---/-------8---/-/----/-12-/--

D-|---------------------------------------------------------------------------
A-|----------5----------------------------------------------------------------
D-|-5~-3-0h3------------------------------------------------------------------
G-|---------------------------------------------------------------------------
D-|---------------------------------------------------------------------------
A-|-/----/---16---------------------------------------------------------------
Hò (câu 4 - Nguyên câu)
D-|-2-----------7-5----10--10-7-10-7--7-10----12-10-9-7--10-9-7---------------
A-|--3-3-0-3-5-7---5->7-------------10----7->10----------------10-9-7-10-9-7-0
D-|---2------------------10----------------------------10---------------------
G-|---------------------------------------------------------------------------
D-|---------------------------------------------------------------------------
A-|-/-/--/------4-------/---/------/------8-----/-------/---/------12--------/

D-|---------------------------------------------------------------------------
A-|-3-2-0---0-3-5-7-5~--------------------------------------------------------
D-|------3-2----------7-------------------------------------------------------
G-|---------------------------------------------------------------------------
D-|---------------------------------------------------------------------------
A-|------/------/-----16------------------------------------------------------
Xề
D-|-----10--10-9-7-7--------7-10-7--7-------------5-7--7^4^2-----2------------
A-|-5h7-------------10~-7-10---------9^8-7-0-7-0-7---5~-----3-0h2-3p2-0-------
D-|-------10----------------------10-----------------------------------3^2----
G-|---------------------------------------------------------------------------
D-|---------------------------------------------------------------------------
A-|----/---/--/----4----/--------/--/----5---/------/--/--12-/---/--/----16---
Xề
D-|--------------------------2-5-2-0------------------------------------------
A-|------------------2-5-2-5---------3-2h3p2-0--------------------------------
D-|-2-22222-5-2-5-2-5-------------------------5~-3--5-3-0-2-3-0-2-3-2-0-------
G-|-----------------------------------------------5--------------------5-4-5-4
D-|---------------------------------------------------------------------------
A-|-/---/-----/------4-------/-------/-----/-----8-/--/-----/------12--/-----/

D-|---------------------------------------------------------------------------
A-|---------------------------------------------------------------------------
D-|---------------------------------------------------------------------------
G-|-2-0-2-4-0-2-0-------------------------------------------------------------
D-|--------------2------------------------------------------------------------
A-|-------/-----16------------------------------------------------------------

D-|-------------------7-5----10-9-7--------------7-4-4-7----------4-7---------
A-|------0---3-0-3-5-7---5->7------9-8-7-0-7-0-7--------4-7-5n-5~0---4-5~7-9^7
D-|-----3-2-----------------------------------------------------7-------------
G-|----5----------------------------------------------------------------------
D-|-2h5-----------------------------------------------------------------------
A-|---/-/-/----4------/-------/---/----8---/-------/----/-----12-/---/--/---16
Xang
D-|-7------------10-7-10-9-7--------------7-4-4-7------------4-4-7------------
A-|--9-7-777----7-----------10-9-7-0-7-0-7-------4-7-5~---0-4-----0-4---5~----
D-|---------10-7-----------------------------------------7-7----------7-------
G-|-----9---------------------------------------------------------------------
D-|---------------------------------------------------------------------------
A-|-/-/-/--4---/--/------/-------8---/------/----/------12-/-/----/-----16----
Cống
D-|-------------5h7-5-5-7-9-10-9-1097-7-9-10----7-10-7-----------4-7-----7----
A-|-5~-5~-5~-4-7-----7--------------10------7-10------9^7-5~-4-0----4-5~7-9---
D-|-----------------------------------------------------------7-7-------------
G-|---------------------------------------------------------------------------
D-|---------------------------------------------------------------------------
A-|--/----/----/----4-/---/----/-----8------/--------/--/----12-/---/--/--16--

D-|-7------------10---7-10-9-7---------7-4-4-7---------4-7--------------------
A-|--9-7-777----7-------------9-8-7-0-7-------4-7-5~-0----4-5~7-9^7-----------
D-|---------10-7------------------------------------7-7-----------------------
G-|-----9---------------------------------------------------------------------
D-|---------------------------------------------------------------------------
A-|-/-/-/--4---/--/--------/------8---/--/----/----12-/---/--/----16----------

D-|--------7-9-10-9-7-9-7--------7-10-7---7-9-10-------7--7-10-7--------7-10--
A-|-777-7-7--------------10~-7-10------10~-----------10~--------10~-7-10~---7-
D-|---------------------------------------------10n10-------------------------
G-|---------------------------------------------------------------------------
D-|---------------------------------------------------------------------------
A-|---/---/-----/-------4----/--------/---/------8--/--/-------/---12---/---/-

D-|----------7----------------------------------------------------------------
A-|---10----------------------------------------------------------------------
D-|------10n------------------------------------------------------------------
G-|---------------------------------------------------------------------------
D-|---------------------------------------------------------------------------
A-|-------/--16---------------------------------------------------------------
<bài viết được chỉnh sửa lúc 12.09.2008 11:59:16 bởi GuitarVongCo >

GuitarVongCo
  • Số bài : 96
  • Điểm thưởng : 0
  • Từ: 06.01.2006
Guitar Vọng cổ câu 1, 2 - Dây Đào - 18.03.2006 00:40:39
Guitar Vọng cổ câu 1, 2 - Dây Đào (Câu này gom từ các câu khác lại không cần mp3 quí vị có thể đàn dể dàng. Đây là 1 trong những cách ráp nối.)

Tips để Copy & Paste vào trong Word or Wordpad: Dùng font: Courier New, size 10.


D-|-----------12-9-----0-7---0-3-0-3-0-------------------0--------------------
A-|---------------12-10~--9-0---------1-3-1-0-5-3-------0-3-------------------
D-|-12---12-12------------------3----------------5~3-0-3---5--3-0h3-0---------
G-|---------------------------------------------------------------------------
D-|---------------------------------------------------------------------------
A-|-16-//-/--4---/----/--/--8---/----/----/------12--/--/--/--------16--------


D-|--------0------------0-3-2-0-------------0--------------------------7-9^7--
A-|---0-0-3-5--0-----0-3-------1---1-3-1-0-5-5-3-----------5-8-5-5-8->9-------
D-|----3-----5~-3-0-3-----------3-3-------------5-3-0-3-5-7-----7-------------
G-|--2---------------------------3--------------------------------------------
D-|-0-------------------------------------------------------------------------
A-|-/-/-/---4--/--/-----/------8-/-/-------/----12------/------/------/---16--
Xang
D-|-7-7-8-7---7-0-7-10-12------10-12-0-12-0-12-9------0-12-9-9-12-------------
A-|---------8------------10~-12-----------------12-10~-----------9-12-10~-----
D-|----------------------------------------------------------------------12---
G-|---------------------------------------------------------------------------
D-|---------------------------------------------------------------------------
A-|-/-----/---/---------4-----/----/----/--------8----/----/-----/-------12---

D-|-0-12-0-12-9---------9--12-------------------------------------------------
A-|------------12-9---9--12--9-10~--------------------------------------------
D-|----------------12---------------------------------------------------------
G-|---------------------------------------------------------------------------
D-|---------------------------------------------------------------------------
A-|---/--------/--------/------16---------------------------------------------
Cống
D-|----------------------3-0-3-0-3---0-------------------------------0-2-3----
A-|-10~-10~-10~-9n-0-3n-3-------------3-1-0------0--------------0-1-------1---
D-|-----------------------3-----3----------0-3-5~-7-7-5~-0-0-3-5~-------------
G-|---------------------------------------------------------------------------
D-|-------------------------------------------------------0-------------------
A-|-/--------/-----/----4-/----/-/--------8--/---/--/---12-/---/-----/---16---
Xề
D-|-0---------------3-2-0-3-2-0-3-2-0-0----0-3-2-0-----0----------------------
A-|--1n~--0-000-0--------------------3--0-3-------1-0-3---0--0--0-----0-----0-
D-|--------------3-3------------------------------------5~-3~-2----0h2-3h2----
G-|--------2---2-------------------------------------------------5~----------2
D-|---------------------------------------------------------------------------
A-|-/--/---/--4-/--/--/-------8------/------/-----/-----12--/-----/---/-----16
Xang
D-|--------------------3-0-7-7->12-12-12-12^-12->15-15-15-14-12-----0-12------
A-|-------------0-3-0-3---5------------------------------------14-12----9-12--
D-|------0-3-0-3--------------------------------------------------------------
G-|5-2-5----------------------------------------------------------------------
D-|---------------------------------------------------------------------------
A-|------/------/------/---4--------/----/-----------/---8----/----/----/-----

D-|------0-12-0-12-9-----------9--12------------------------------------------
A-|-10~-------------12-9-----9--12--9-10~-------------------------------------
D-|---12-----------------12---------------------------------------------------
G-|---------------------------------------------------------------------------
D-|---------------------------------------------------------------------------
A-|---12---/--------/----------/------16--------------------------------------
Xang

D-|----------------------3-0-3-0-3-0-----------------------------------0------
A-|-10~-10~-10~-9n-0-3n-3-----------3-1-0-----------5-8-7-5-----------0-1-0-1-
D-|-----------------------3-----3--------5-3-0-3-5-7-------8-7-5~0-0-3--------
G-|---------------------------------------------------------------------------
D-|---------------------------------------------------------------0-----------
A-|---/------/-----/----4-/----/-/------8----/------/------/----12-/----/-----

D-|---------------------------------------------------------------------------
A-|---------------------------------------------------------------------------
D-|-0-3-0-5~------------------------------------------------------------------
G-|---------------------------------------------------------------------------
D-|---------------------------------------------------------------------------
A-|-/----16-------------------------------------------------------------------


D-|------------0-3-0-3---0-----0-12-10-12-15-10-12-12-9---------0-------------
A-|-----0----0------------3-1-0---------------------------12-9-0---------5----
D-|-5~-----0--3-----3----------------------------12--------------5~-3-0h3-----
G-|------2--------------------------------------------------------------------
D-|---------0-----------------------------------------------------------------
A-|-/-/--/--4-/----/-/--------8--------/-------/---/------12---/-/----/--16---

D-|---------0----------------------------------0-3-2-0-----------0------------
A-|-5-5-5--0-3~-1-0---------0---0-----------0-3-------1-0-------0-3-----------
D-|------0----------5~---0h2-3p2--3n-0-3-0-3-------------5~3-0-3---5~-3-0h3-0-
G-|------------------------------2--------------------------------------------
D-|---------------------------------------------------------------------------
A-|-/---/-/-4---/---/-------/----8---/------/------/----12---/--/--/--------16

D-|----0------7-7->10-12-0-12-0-12-9------12-9-9-12---------------0-5-4-0-0---
A-|-0-3-5--0-8----------------------12~10~----------9-12-10~-10~---------5----
D-|------5~-7---------------------------------------------------12------------
G-|---------------------------------------------------------------------------
D-|---------------------------------------------------------------------------
A-|-/--/-/--4-/--------/---/--------8---/----/------/--------12---/-----/-----

D-|-4-5-7-9^7-----------------------------------------------------------------
A-|---------------------------------------------------------------------------
D-|---------------------------------------------------------------------------
G-|---------------------------------------------------------------------------
D-|---------------------------------------------------------------------------
A-|---/----16-----------------------------------------------------------------

D-|---7-7-8-7-7-0-7-10-12------10-12-0-12-0-12-9------0-12-9-9-12----------0--
A-|----------8-----------10~-12-----------------12-10~-----------9-12-10~-----
D-|----------------------------------------------------------------------12---
G-|---------------------------------------------------------------------------
D-|---------------------------------------------------------------------------
A-|---/-----/-/--------/-----/-----/----/--------/----/----/-----/--------/---
.....................................Xang
D-|---9-12--------------|------------12-14-15-14-12-14-12---------12-15-12-0-12-0
A-|--------9-10~12-12-12|121212-12-12--------------------15~-12-15---------------
D-|-12------------------|--------------------------------------------------------
G-|---------------------|--------------------------------------------------------
D-|---------------------|--------------------------------------------------------
A-|-/------/---/-------/|-----/----/--------/-----------4-----/----------/----/--

D-|-12-9--------12-9-----------0-12-9-12-9------0-----------------------------
A-|-----12-10~-9----12-12-10~-------------12-9---10~-....---------------------
D-|--------------------------12-----------------------------------------------
G-|---------------------------------------------------------------------------
D-|---------------------------------------------------------------------------
A-|------8-----/---/----/----12---/------/---/---16---------------------------
<bài viết được chỉnh sửa lúc 12.09.2008 12:03:10 bởi GuitarVongCo >

GuitarVongCo
  • Số bài : 96
  • Điểm thưởng : 0
  • Từ: 06.01.2006
Guitar Vọng cổ câu 5, 6 - Dây Đào - 18.03.2006 02:33:09
Guitar Vọng cổ câu 5, 6 - Dây Đào (Câu này gom từ các câu khác lại không cần mp3 quí vị có thể đàn dể dàng. Đây là 1 trong những cách ráp nối.)

Tips để Copy & Paste vào trong Word or Wordpad: Dùng font: Courier New, size 10.


D-|---------------7h9-797-----0-0-3-0--------------------0--------------------
A-|-5----0-5-8-10~-------8---0-------1-3-1-0-5-3--------0-3-------------------
D-|-----0------------------7---3----------------5~-3-0-3---5~-3-0h3-0---------
G-|---------------------------------------------------------------------------
D-|---------------------------------------------------------------------------
A-|16//-/--4----/---/---/--8---/----/----/-----12----/--/--/-------16---------

D-|-2-3-2-0-3---3-0-------3-0-3-0-0---------------------0-5-4-0-0-4h5-7-9^-7--
A-|--------3-0-3---5-3-------------3~-1-0------0---------5-----5--------------
D-|-------------------5~-3-------0-------0-3-5~-7-7-5~-0----------------------
G-|---------------------------------------------------------------------------
D-|---------------------------------------------------------------------------
A-|-/------/----/-----4---/-----/-/-----8--/---/--/---12-/----/-----/------16-

D-|-7-7-8-7-7-0-7-10-12------10-12---0-12-0-12-9--------12-9-9-12-------------
A-|--------8-----------10~-12-------------------12-10~-9---------9-12-12-10~--
D-|-------------------------------------------------------------------------12
G-|---------------------------------------------------------------------------
D-|---------------------------------------------------------------------------
A-|-/-----/-/---------4----/-----/------/--------8-----/---/-----/-------12---

D-|-0-9-12--------------------------------------------------------------------
A-|-------9-10~-12-14-12------------------------------------------------------
D-|---------------------------------------------------------------------------
G-|---------------------------------------------------------------------------
D-|---------------------------------------------------------------------------
A-|-/-----/---/-------16------------------------------------------------------
Xề
D-|-------------12-14-15-14-12-14-12--------12-15-12-0-12-0-12-9---------10-12--
A-|-121212-12-12--------------------15~12-15--------------------12-10~-12-----10~
D-|-----------------------------------------------------------------------------
G-|-----------------------------------------------------------------------------
D-|-----------------------------------------------------------------------------
A-|------/----/--------/-----------4----/---------/-----/--------8------/---/---

D-|-12-9-7-------------7------------------------------------------------------
A-|-------8-7h8n-8-7-5~-------------------------------------------------------
D-|---------------------7-----------------------------------------------------
G-|---------------------------------------------------------------------------
D-|---------------------------------------------------------------------------
A-|--/--12--/----/---/-16-----------------------------------------------------
Xề
D-|--0-0-3-0--------0---------2-3-2-0-3---3-0---------------------------------
A-|-0-------1-0----0-3---------------3-0-3---5-3--0--0-0----------------------
D-|---3---------0-3---5~-3-0--------------------5~-3~-2---0-2-0-2-3-----------
G-|------------2----------------------------------------5~---------2----------
D-|---------------------------------------------------------------------------
A-|-/-/----/--4-/--/--/----8--/------/----/----12--/----/---/-----16----------


D-|-------------------------------------3-5-3-20-3-2-0-0---0-3-2-0---------0--
A-|------------------------------3-5-3-5--------------3-0-3-------1-3-1-0-5-5-
D-|-3-2-0-3-2-0-3-2-0-----3-5-3-5---------------------------------------------
G-|------------------5757-----------------------------------------------------
D-|---------------------------------------------------------------------------
A-|---/-------/------/----4------/------/------/------8----/------/-------/---


D-|-------------------------7-9^-7--------------------------------------------
A-|-3-----------5-8-5-5-8->9--------------------------------------------------
D-|--5-3-0-3-5-7-----7--------------------------------------------------------
G-|---------------------------------------------------------------------------
D-|---------------------------------------------------------------------------
A-|-12-------/------/------/----16--------------------------------------------

Xang
D-|-7-787-7-0-7-10-12---15^12-14-15^14-15-14-12--12-14-15----12-15-12---------
A-|------8-----------10~-----------------------15-------12-15--------14^12-10~
D-|---------------------------------------------------------------------------
G-|---------------------------------------------------------------------------
D-|---------------------------------------------------------------------------
A-|-/---/-/--------4-----/-----/-----/----------8--------/----------/----/----

D-|----0-12-9-12-9----0-------------------------------------------------------
A-|-9-------------12-9-10~----------------------------------------------------
D-|--12-----------------------------------------------------------------------
G-|---------------------------------------------------------------------------
D-|---------------------------------------------------------------------------
A-|--12---/------/---/--16----------------------------------------------------
Cống
D-|------------------3-0-3-0---0----------------------------------------0-2-3-
A-|-10~10~10~9n0-3n-3-----------3~1-0-----------5-8-7-5--------------0-1-----1
D-|-------------------3-----1b0------5-3-0-3-5-7-------8-7-5~-0-0-3-5~--------
G-|---------------------------------------------------------------------------
D-|----------------------------------------------------------0----------------
A-|--/-----/---/----4-/----/---/----8----/------/------/-----12-/---/---/---16

D-|-0---------3-0-3-0---0-------------------0-7-4-7-0-4h5-7-9^7---------------
A-|--1n~0-000------------3~1-0-----0---------5--------------------------------
D-|----------3-------1b0------0-3-5~7-7-5~-0----------------------------------
G-|------2--------------------------------------------------------------------
D-|---------------------------------------------------------------------------
A-|-/--/-/--4-/-----/---/----8--/--/--/---12-/--/-------/----16---------------
Xề
D-|-777-7-7---7-0-7-10-12------10-12--12-9-12------0-0-3-0--------------------
A-|---------8------------10~-12--------------12-8-7-3~----3~-1-0--------------
D-|---------------------------------12--------------------------0-5n~3-5n-5-3-
G-|--------------------------------------------------------------------------2
D-|---------------------------------------------------------------------------
A-|---/---/---/---------4----/-----/---/------8---/-/----/--12--/----/----/--16

D-|----------------------------353-20--0-23-----------------0-7-4-7-0-4h5-7-9^7
A-|---------------------3-5-3-5------3~-----1---1n0----------5-----------------
D-|----------3-5-3-5-3-5---------------------3-3---5-3-0-3-0-------------------
G-|-2-2-5-2-5---------------------------------3--------------------------------
D-|----------------------------------------------------------------------------
A-|-/-----/------/------4------/----/-/-----8-/-/--/------12-/--/-------/----16

D-|-777-7-7-7-0-7-10-12---12-9-12--0-12----------------3-0-3-0---0--3---------
A-|--------8-----------10~-------12-----9-12-10~-0-3n-3-------1-0-5----------5
D-|-----------------------------------------------------3------------5~-3-0h3-
G-|---------------------------------------------------------------------------
D-|---------------------------------------------------------------------------
A-|---/---/-/---------4----/------/-----/--------8----/-/----/-12-/--/----/--16
<bài viết được chỉnh sửa lúc 13.10.2007 02:56:55 bởi GuitarVongCo >

GuitarVongCo
  • Số bài : 96
  • Điểm thưởng : 0
  • Từ: 06.01.2006
Guitar Vọng cổ câu 1, 2 - Dây Kép Cao (La) - 18.03.2006 02:43:03
Guitar Vọng cổ câu 1, 2 - Dây Kép Cao (La) (Câu này gom từ các câu khác lại không cần mp3 quí vị có thể đàn dể dàng. Đây là 1 trong những cách ráp nối.)

Tips để Copy & Paste vào trong Word or Wordpad: Dùng font: Courier New, size 10.



D-|--------7-7-7----3-2-2-----------5-7-9-10-9-7------------------------------
A-|-----------7-5~-0---0-3-3-0-3-5-7------------10-9-7-10-9-7-0---------------
D-|-7---7-7---------------2------------------------------------3--2-0---------
G-|-------------------------------------------------------------------3-2-----
D-|---------------------------------------------------------------------------

A-|16-///-4--/--/-----/---8--/------/--------/-------12-------/-------/-------
D-|---------------------------------------------------------------------------
A-|-0-3-5-7-5~----------------------------------------------------------------
D-|-----------7---------------------------------------------------------------
G-|---------------------------------------------------------------------------
D-|---------------------------------------------------------------------------
A-|-----/----16---------------------------------------------------------------

D-|-----7-14-10-97-------79-10-97-----------7447-------------------------7----
A-|-7-10-7--------10~7-10--------9-8-7-07-07----4-7-5~-----30-3-0-0-4-5-7-9->7
D-|--------------------------------------------------7-0h2-------7------------
G-|---------------------------------------------------------------------------
D-|---------------------------------------------------------------------------
A-|-/---/-/-----4--/-----/------/----8--/----/--/---12----/-----/-----/-----16
Xang
D-|------------10-7-10-97--7910----7-10--10-9-7-10-9-7-----------4-4-7--------
A-|7-5~-7-9-7-7----------10----7-10-------------------9^7-5~4-0-4-----0-4---5~
D-|------------------------------------10--------------------7-7----------7---
G-|----------9----------------------------------------------------------------
D-|---------------------------------------------------------------------------
A-|/--/-----/-/---/-----/------/--------8---/--------/--/---12-/-/----/-----16
Cống
D-|--------------------------------------------------4-7---------4-7-----7----
A-|-5~5~5~-3-2-3-2-0----------------3n-0-----3n-0-4-7---4-7-5~-0----4-5~7-9---
D-|------------------3-2-0-3-2-0---5----3-2-2-----------------7-7-------------
G-|------------------------------5--------------------------------------------
D-|---------------------------------------------------------------------------
A-|-/---/----/-------4-------/-----/--/-----8---/---/---/----12-/---/--/--16--
Xề
D-|---7---------10-7-10-9-7--7-9-10----7-10-10-7-9-10-9-7--7-----7^--3^232-2--
A-|10~--10~9~7-7-----------10------7-10---------------------9-8-7-0-3-----0-3-
D-|----------------------------------------10------------10------------------2
G-|---------------------------------------------------------------------------
D-|---------------------------------------------------------------------------
A-|--/-/---/---4---/--------/------/--------8--/--------/--/---12-/--/---/---16
Xang
D-|---------------------2-----------------------------4-7----------4-4-7------
A-|------------------023-3-2-0-3-2-0---------0-3-0-4-7---4-7-5~-0-4-----0-4---5~
D-|-2-22222-5-2-5-2-5---------------3-2-0-2-3-2----------------7-7----------7-
G-|---------------------------------------------------------------------------
D-|---------------------------------------------------------------------------
A-|-/---/-----/------4---/-------/------/-----8--/---/---/----12-/-/----/-----16
Xang
D-|-------------5h7-5-5-7h9-10-7-10-9-7--7-9-10----7-10-7-----------4---------
A-|-5~-5~-5~-4-7-----7-----------------10------7-10------9^7-5~4-0-4-8n-7-0-5~
D-|-------------------------------------------------------------7-------------
G-|---------------------------------------------------------------------------
D-|---------------------------------------------------------------------------
A-|-/-----/----/----4-/---/----/-------8-------/--------/-/--12--/--/--/----16

D-|---------------------------------7-7-4-7-------------------------------------
A-|-5~5~5~0---3-0-----3-3-0-3-3n-0-7-------7-0----7-----------------------------
D-|--------0h2-------5-5-5---2-------7--------7-10-------7----------------------
G-|---------------5-5------------------------------9-7~-5-----------------------
D-|---------------------------------------------------------------------------
A-|-/---/--/----4---/-/-/----8---/--/-/---12--/---/--/---16---------------------

D-|-------------------------------2-2-3-2-2--------7-7-4-7-7--------------7---
A-|--------------------------0-2-3-------0-3-3--0-7-------7-5~-0-3-0-3-5-7----
D-|-7-7-9-10-9-7-10-9-7-5~-5~---------------2-------7-------------2---------7-
G-|---------------------------------------------------------------------------
D-|---------------------------------------------------------------------------
A-|-/------/--------/------4---/--/-----/---8---/--/-/---12-/-----/----/---16-

D-|--10-9-7-----10--10-7-9-10-9-7-------------7-4-4-7----------7--------------
A-|-7------10~-7-----------------9-8-7-0-7-0-7-------4-7-5~-0-7-4-5~7-9^7-----
D-|---------------10---------------------------------------7-7----------------
G-|---------------------------------------------------------------------------
D-|---------------------------------------------------------------------------
A-|/-/----/----4---/---/--------/----8---/------/----/----12-/--/--/----16----

D-|-7--------10--10-7-9-10-9-7-------------7-4-4-7---------4-7----------------
A-|--9n-9-7-7-----------------9-8-7-0-7-0-7-------4-7-5~-0----4-5~-7-9^7------
D-|------------10---------------------------------------7-7-------------------
G-|--------9------------------------------------------------------------------
D-|---------------------------------------------------------------------------
A-|-/--/--/-4---/---/--------/----8---/------/----/----12-/---/---/---16------
Xang
D-|---------7-9-10-9-7-9-7--------7-10-7--7---------7-4----------447---------
A-|-777-7-7---------------10~-7-10---------9-8-7-0-7---7-7-5~-0-4---0-4---5~..
D-|-------------------------------------10-------------------7-7--------7-----
G-|---------------------------------------------------------------------------
D-|---------------------------------------------------------------------------
A-|---/---/-----/--------4----/--------/--/----8---/--/--/--12-/-/--/-----16--
<bài viết được chỉnh sửa lúc 12.09.2008 12:07:27 bởi GuitarVongCo >

GuitarVongCo
  • Số bài : 96
  • Điểm thưởng : 0
  • Từ: 06.01.2006
Guitar Vọng cổ câu 4, 6 - Dây Kép Cao (La) - 23.03.2006 05:28:38
Guitar Vọng cổ câu 4, 6 - Dây Kép Cao (La) (Câu này gom từ các câu khác lại không cần mp3 quí vị có thể đàn dể dàng. Đây là 1 trong những cách ráp nối.)

Tips để Copy & Paste vào trong Word or Wordpad: Dùng font: Courier New, size 10.


D-|--------7-7-7---3-2-2--------7-7-4-7-7-------------------------------------
A-|-----------7-5~0---0-3--3-0-7-------7-5~0-3--0-3-5-7-5~--------------------
D-|-7---7-7---------------2------7-------------2----------7-------------------
G-|---------------------------------------------------------------------------
D-|---------------------------------------------------------------------------
A-|16-///-4--/--/----/----8--/--/-/---12-/-----/----/----16-------------------

D-|-----7-9-10-9-7-7--------7-10-7--7---------744-7---------4-7---------------
A-|-7-10------------10~-7-10---------9-8-7-0-7-----4-7-5~-0----4-5~-7-9^7-----
D-|-------------------------------10---------------------7-7------------------
G-|---------------------------------------------------------------------------
D-|---------------------------------------------------------------------------
A-|/----/-----/----/----/--------/--/----8---/-/---/----12-/---/--/-----16----

D-|-7--------10--10-7-9-10-9-7---------7-4-4-7---------4-7--------------------
A-|--9n-9-7-7-----------------9-8-7-0-7-------4-7-5~-0----4-5~-7-9^7----------
D-|------------10-----------------------------------7-7-----------------------
G-|--------9------------------------------------------------------------------
D-|---------------------------------------------------------------------------
A-|-/--/--/-4---/---/--------/----8---/--/----/----12-/---/--/-----16---------

D-|--------7-9-10-9-7-9-7--------7-10-7---------------7-4-7-7-----------------
A-|-777-7-7--------------10~-7-10------9-7-0-3---3-0-7-----7-5~0-3-0-3-5-7-5~-
D-|-------------------------------------------2-2-----------------2----------7
G-|---------------------------------------------------------------------------
D-|---------------------------------------------------------------------------
A-|---/---/----/--------4----/-------/-----/--8-/--/--/---12-/----/----/----16
Xề
D-|----10-9-7-7--------------------7-9-10--10-9-10-9-7-7-9-10----7-10--10-----
A-|-5h7--------10~-7-10--7-10-7-10--------------------10-----7-10-------------
D-|--------------------------------------10--------------------------10-------
G-|---------------------------------------------------------------------------
D-|---------------------------------------------------------------------------
A-|-----/---/---/--------4---------/------/---/--------8-----/--------/-------

D-|-9-7----------------------------2------------------------------------------
A-|----10-9-7-10-9-7-0---------0h2--3p2-0-------------------------------------
D-|-------------------10-9-7-5~------------2----------------------------------
G-|---------------------------------------------------------------------------
D-|---------------------------------------------------------------------------
A-|-/------12--------/-------/-----/------16----------------------------------


D-|---------------------------5~7-9-10--1097-----------------------------7----
A-|--3n-2h3p2-0-------------3---------------9^7-5~--0----3-0-3-0--0-3-5-7-9->7
D-|-5----------3-3-2h3h2-0-5----------10-------------0h2---------7------------
G-|5----------------------5---------------------------------------------------
D-|---------------------------------------------------------------------------
A-|/-/------/----4-----/---/--/---8------/-/--/----12---/------/------/------16
Xang
D-|-------------7-9-11-7-----7-9-11-7---11-9-7----------7-4-4-7---------------
A-|-7-5~-7-9-7-7---------10~------------------9n-7-5~-0--------0-4---5~-------
D-|----------------------------------11--------------7-7-----------7----------
G-|-----------9---------------------------------------------------------------
D-|---------------------------------------------------------------------------
A-|-/---/----/-4--/----/----/-------8----/---/--/---12-/--/----/----16--------
Cống
D-|------------------------------------------------------------7-4------------
A-|-5~5~5~-3-2-3-2-0---------------------------------3n-0-3-5-7---5~-3-0-3-0--
D-|-----------------3-2-0-3-2-0---------------------2-------------------------
G-|----------------------------4-5-4-2-0-2-4-020-0h2--------------------------
D-|---------------------------------------------2-----------------------------
A-|--/--/----/------4-------/------/-------/----8--/--/-----/--12---/------/--

D-|---------7-----------------------------------------------------------------
A-|--0-3-5-7-9----------------------------------------------------------------
D-|-7-------------------------------------------------------------------------
G-|---------------------------------------------------------------------------
D-|---------------------------------------------------------------------------
A-|------/---16---------------------------------------------------------------

D-|-7---------7-9-10^7--10^9-7--------7-10-7-----------4-7--------------------
A-|--9n---7-7-----------------10~-7-10------9^7-5~-4-0----4-5~-7-9-7----------
D-|-------------------10----------------------------7-7-----------------------
G-|--------9------------------------------------------------------------------
D-|---------------------------------------------------------------------------
A-|-/--/----/4-/-----/---/---8----/--------/--/----12-/---/---/---16----------
Xề
D-|-------7-9-10-9-7-9-7--7-9-10-7--7-------------4-7--7^4^2---------2------
A-|777-7-7--------------10~----------9n8-7-0-7-0-7----------32320-0h2-3p2-0-
D-|-------------------------------10------------------7----------5~--------2
G-|---------------------------------------------------------------------------
D-|---------------------------------------------------------------------------
A-|--/---/-----/-------4-/-------/--/----8---/------/--/--12-/---/---/----16

D-|---------10--10-7-9-10-9-7-10-9-7--7-9-10----7-10-7-----------4-7----------
A-|-0--3-0-7------------------------10------7-10------9^7-5~-4-0----4-5~-7-9^7
D-|---5---7---10----------------------------------------------7-7-------------
G-|--5------------------------------------------------------------------------
D-|---------------------------------------------------------------------------
A-|-/-/--/-4---/---/--------/--------8------/--------/--/----12-/---/---/---16

D-|--------7-9-10-9-7-9-7--------7-10-7---------------7-7-4-7------------------
A-|-777-7-7--------------10~-7-10------9-7-0-3-3n-0--7-------7-5~-0-3----------
D-|-------------------------------------------2--------7-------------2->5-5ng-7
G-|----------------------------------------------------------------------------
D-|----------------------------------------------------------------------------
A-|---/---/-----/-------4----/--------/----/--8---/---/-/---12----/--/-----/-16
<bài viết được chỉnh sửa lúc 12.09.2008 12:13:18 bởi GuitarVongCo >

GuitarVongCo
  • Số bài : 96
  • Điểm thưởng : 0
  • Từ: 06.01.2006
Guitar Vọng cổ câu 5, 6 - Dây Kép Cao (La) - 24.03.2006 07:04:22
Da^y Kep' cao (La) ca^u 5 & 6 (Câu này gom từ các câu khác lại không cần mp3 quí vị có thể đàn dể dàng. Đây là 1 trong những cách ráp nối.)

Tips để Copy & Paste vào trong Word or Wordpad: Dùng font: Courier New, size 10.


D-|--------7-7-7---3-2-2--------7-7-4-7-7-------------------------------------
A-|-----------7-5~0---0-3--3-0-7-------7-5~0-3--0-3-5-7-5~--------------------
D-|-7---7-7---------------2------7-------------2----------7-------------------
G-|---------------------------------------------------------------------------
D-|---------------------------------------------------------------------------
A-|16-///-4--/--/----/----8--/--/-/---12-/-----/----/----16-------------------

D-|-----7-9-10-9-7-7--------7-10-7--7---------744-7---------4-7---------------
A-|-7-10------------10~-7-10---------9-8-7-0-7-----4-7-5~-0----4-5~-7-9^7-----
D-|-------------------------------10---------------------7-7------------------
G-|---------------------------------------------------------------------------
D-|---------------------------------------------------------------------------
A-|/----/-----/----/----/--------/--/----8---/-/---/----12-/---/--/-----16----

D-|-7--------10--10-7-9-10-9-7---------7-4-4-7---------4-7--------------------
A-|--9n-9-7-7-----------------9-8-7-0-7-------4-7-5~-0----4-5~-7-9^7----------
D-|------------10-----------------------------------7-7-----------------------
G-|--------9------------------------------------------------------------------
D-|---------------------------------------------------------------------------
A-|-/--/--/-4---/---/--------/----8---/--/----/----12-/---/--/-----16---------
Xề
D-|-------7-9-10-9-7-9-7-------7-10-7--7-----------5-7-7^4^2-----------2------
A-|777-7-7--------------10~7-10---------9-8-7-07-07---5~----3-2-320-0h2-3p2-0-
D-|----------------------------------10----------------------------5~--------2
G-|---------------------------------------------------------------------------
D-|---------------------------------------------------------------------------
A-|--/---/-----/-------4---/--------/--/----8--/-----/--/-12--/----/---/----16
Xề
D-|------------------------2--------------------------5~-7-9-7-9-10--10-7-10-9
A-|-------------------0-2-3-3-2-3-2-0-0-------------3-------------------------
D-|2-22222---5-2-5-2-5---------------3-3-2-0-3-2-0-5---------------10---------
G-|-----------------------------------------------5---------------------------
D-|---------------------------------------------------------------------------
A-|/---/-------/------4-----/-----/----/-------8---/--/----/-------12---/-----

D-|-7-----3-2-2---------------------------------------------------------------
A-|--9-7-0---0-3--------------------------------------------------------------
D-|-------------2-------------------------------------------------------------
G-|---------------------------------------------------------------------------
D-|---------------------------------------------------------------------------
A-|--/------/---16------------------------------------------------------------

D-|---------------------------------------4-7-----------4-7-4-7---------------
A-|-1-1-1-11-1-0--3---3-0-3-0-0-3-3n-0-4-7---4-7-5~-5~-0-------0-4-5-7-9^7----
D-|-------------5~--5--------5---2--------------------7-----------------------
G-|----------------5----------------------------------------------------------
D-|---------------------------------------------------------------------------
A-|--/--/---/---4--/--/-----/----8---/---/---/-----12--/----/------/----16----
Xang
D-|-7---------------10-7-10-9-7----------7-4-4-7----------4-4-7---------------
A-|--9~-7---777----7----------987-0-7-0-7-------4-7-5~-0-4-----0-4---5~-------
D-|------------10-7-----------------------------------7-7----------7----------
G-|------9--------------------------------------------------------------------
D-|---------------------------------------------------------------------------
A-|-/-/--/----4---/--/------/---8---/------/----/----12-/-/----/----16--------
Cống
D-|-----------------------------------------4-7---------4-7-----7-------------
A-|-5~-5~-5~-0---3-0-----3-0-3-0-0-3-3-0-4-7---4-7-5~-0----4-5~7-9------------
D-|-----------0h2----5~5~-------5---2----------------7-7----------------------
G-|-----------------5---------------------------------------------------------
D-|---------------------------------------------------------------------------
A-|-/-----/-----/--4-/---/-----/----8--/---/---/----12-/---/--/-16------------

D-|-7---------7-9-10-7--7-------------7-4-4-7---------4-7---------------------
A-|--9~7--777------------9-8-7-0-7-0-7-------4-7-5~-0----4-5~-7-9^7-----------
D-|-------------------10---------------------------7-7------------------------
G-|-----9---------------------------------------------------------------------
D-|---------------------------------------------------------------------------
A-|-/-/-/---4---/----/--/----8---/------/----/----12-/---/--/----16-----------

D-|--------7-9-10-9-7-9-7---------7-10-7--7--------------5-7---7^4^2^---------
A-|-777-7-7--------------10~-7-10----------9-8-7-0-7-0-7----5~-------3-2-3-2-0
D-|-------------------------------------10------------------------------------
G-|---------------------------------------------------------------------------
D-|---------------------------------------------------------------------------
A-|---/---/-----/-------4----/---------/--/----8---/-------/---/--12---/------
Xề
D-|----2----------------------------------------------------------------------
A-|-0h2-3p2-0-----------------------------------------------------------------
D-|5~--------2----------------------------------------------------------------
G-|---------------------------------------------------------------------------
D-|---------------------------------------------------------------------------
A-|/---/----16----------------------------------------------------------------

D-|---------10--10-7-9-10-9-7-------------7-4-4-7---------4-7-----------------
A-|-0--3-0-7-----------------9-8-7-0-7-0-7-------4-7-5~-0----4-5~-7-9^7-------
D-|---5---7---10---------------------------------------7-7--------------------
G-|--5------------------------------------------------------------------------
D-|---------------------------------------------------------------------------
A-|-/-/--/-4--/----/-------/-----8---/-----/----/-----12-/---/--/----16-------

D-|--------7-9-10-9-7-9-7--------7-10-7---------------7-7-4-7------------------
A-|-777-7-7--------------10~-7-10------9-7-0-3-3n-0--7-------7-5~-0-3----------
D-|-------------------------------------------2--------7-------------2->5-5ng-7
G-|----------------------------------------------------------------------------
D-|----------------------------------------------------------------------------
A-|---/---/-----/-------4----/--------/----/--8---/---/-/---12----/--/-----/-16
<bài viết được chỉnh sửa lúc 12.09.2008 12:15:31 bởi GuitarVongCo >

GuitarVongCo
  • Số bài : 96
  • Điểm thưởng : 0
  • Từ: 06.01.2006
Guitar Vọng cổ câu 4, 6 - Dây Đào - 28.03.2006 01:19:57
Guitar Vọng cổ câu 4, 6 - Dây Đào (Câu này gom từ các câu khác lại không cần mp3 quí vị có thể đàn dể dàng. Đây là 1 trong những cách ráp nối.)

Tips để Copy & Paste vào trong Word or Wordpad: Dùng font: Courier New, size 10.

D-|---------0--------------------0-320--------------0-------------------------
A-|-5---5-0---3~-1-0----0-------0-----5-3--------0-3--3-----------------------
D-|------0----------5~-0-3-3-0-3---------5~-3-0-3------5~3-0h3-0--------------
G-|-----------------------2---------------------------------------------------
D-|---------------------------------------------------------------------------
A-|16-//-/--4----/--/---/-8--/--/---/---12----/--/-----/------16--------------

D-|-2-3-2-0-3---3-0-------3-0-3-0---0------0-12-10-12-15-10-12-9--12----------
A-|--------3-0-3---5-3---------------3~-1-0---------------------12--9-12-10~10
D-|-------------------5~-3-------1b0------------------------------------------12
G-|---------------------------------------------------------------------------
D-|---------------------------------------------------------------------------
A-|-/------/----/-----4---/-----/---/-----8-----/------------/------/-------12

D-|-0-5-4-0-0-4h5-7-9^-7------------------------------------------------------
A-|--------5------------------------------------------------------------------
D-|---------------------------------------------------------------------------
G-|---------------------------------------------------------------------------
D-|---------------------------------------------------------------------------
A-|-/-----/-----/-----16------------------------------------------------------

D-|-7-7-8-7-7-0-7-10-12------10-12-0-12-0-12-9--------12-9-9-12---------------
A-|--------8-----------10~-12-----------------12-10~-9---------9-12-10~-------
D-|----------------------------------------------------------------------12---
G-|---------------------------------------------------------------------------
D-|---------------------------------------------------------------------------
A-|-/-----/-/---------4-----/----/---/---------8-----/---/-----/---------12---

D-|-0--9-12-------------------------------------------------------------------
A-|--------9-10~-12-14-12-----------------------------------------------------
D-|--12-----------------------------------------------------------------------
G-|---------------------------------------------------------------------------
D-|---------------------------------------------------------------------------
A-|---/----/---/-------16-----------------------------------------------------

D-|-------------12-14-15-14-12-14-12---------12-15-12---------------3-0-3-0---0-3-
A-|-121212-12-12--------------------15~-12-15--------14^12-10~-0-0h3-------1-0-5--
D-|------------------------------------------------------------------3------------
G-|-------------------------------------------------------------------------------
D-|-------------------------------------------------------------------------------
A-|------/----/--------/-----------4-----/----------/----/-----8---/-/----/-12-/--

D-|---------------------------------------------------------------------------
A-|----------5----------------------------------------------------------------
D-|-5~-3-0h3------------------------------------------------------------------
G-|---------------------------------------------------------------------------
D-|---------------------------------------------------------------------------
A-|-/----/--16----------------------------------------------------------------
Xe^`
D-|5-5-3-2-3-2-0------7-----7-----0-320---------------------------------------
A-|-------------3~-5h7-8~7-5~-0-3~-----1-0--0--0-0----------------------------
D-|-5------------------------7-3----------5~-3~-2---0-2-0-2-3-----------------
G-|-----------------------------------------------5~---------2----------------
D-|---------------------------------------------------------------------------
A-|/-/---/------4----/-/---/-8/-/----/---12--/----/---/------16---------------


D-|-------------------------------------3-5-3-20-3-2-0-0---0-3-2-0---------0--
A-|------------------------------3-5-3-5--------------3-0-3-------1-3-1-0-5-5-
D-|-3-2-0-3-2-0-3-2-0-----3-5-3-5---------------------------------------------
G-|------------------5757-----------------------------------------------------
D-|---------------------------------------------------------------------------
A-|---/-------/------/----4------/------/------/------8----/------/-------/---

D-|-------------------------7-9^-7--------------------------------------------
A-|-3-----------5-8-5-5-8->9--------------------------------------------------
D-|--5-3-0-3-5-7-----7--------------------------------------------------------
G-|---------------------------------------------------------------------------
D-|---------------------------------------------------------------------------
A-|-12-------/------/------/----16--------------------------------------------
Xang
D-|-7-787-7-0-7-10-12---15^12-14-15^14-15-14-12--12-14-15----12-15-12---------
A-|------8-----------10~-----------------------15-------12-15--------14^12-10~
D-|---------------------------------------------------------------------------
G-|---------------------------------------------------------------------------
D-|---------------------------------------------------------------------------
A-|-/---/-/---------4----/-----/-----/----------8--------/----------/----/----

D-|----0-12-9-12-9----0-------------------------------------------------------
A-|-9-------------12-9-10~----------------------------------------------------
D-|--12-----------------------------------------------------------------------
G-|---------------------------------------------------------------------------
D-|---------------------------------------------------------------------------
A-|--12--/-------/---/-16-----------------------------------------------------
Cống

D-|------------------3-0-3-0---0----------------------------------------0-2-3-
A-|-10~10~10~9n0-3n-3-----------3~1-0-----------5-8-7-5--------------0-1-----1
D-|-------------------3-----1b0------5-3-0-3-5-7-------8-7-5~-0-0-3-5~--------
G-|---------------------------------------------------------------------------
D-|----------------------------------------------------------0----------------
A-|---/----/---/----4-/----/---/----8----/------/------/-----12-/---/---/---16

D-|-0---------3-0-3-0---0-------------------0-7-4-7-0-4h5-7-9^7---------------
A-|--1n~0-000------------3~1-0-----0---------5--------------------------------
D-|----------3-------1b0------0-3-5~7-7-5~-0----------------------------------
G-|------2--------------------------------------------------------------------
D-|---------------------------------------------------------------------------
A-|-/--/-/--4-/-----/---/----8--/--/--/---12-/--/-------/----16---------------
Xề
D-|-777-7-7---7-0-7-10-12------10-12--12-9-12------0-0-3-0--------------------
A-|---------8------------10~-12--------------12-8-7-3~----3~-1-0--------------
D-|---------------------------------12--------------------------0-5n~3-5n-5-3-
G-|--------------------------------------------------------------------------2
D-|---------------------------------------------------------------------------
A-|---/---/---/--------4------/----/---/------8---/-/----/--12--/----/----/--16
Xe^
D-|----------------------3-0-7-10-12--15^14-12-0--0--12-9-9-12----------------
A-|---------------0-3-0-3---5-------10~---------12-12---------9-12-10~--------
D-|--------0-3-0-3----------------------------------------------------12------
G-|-2-5-2-5-------------------------------------------------------------------
D-|---------------------------------------------------------------------------
A-|-/------/------/------4---/----/----/-----8---/------/-----/-------12------

D-|-0--9-12-----7-9^-7--------------------------------------------------------
A-|--------9-10~--------------------------------------------------------------
D-|--12-----------------------------------------------------------------------
G-|---------------------------------------------------------------------------
D-|---------------------------------------------------------------------------
A-|--/-----/---/-----16-------------------------------------------------------

D-|-777-7-7-7-0-7-10-12---12-9-12--0-12---------------3-0-3-0---0--3----------
A-|--------8-----------10~-------12----9-12-10~-0-0h3~-------1-0-5----------5-
D-|----------------------------------------------------3------------5~-3-0h3--
G-|---------------------------------------------------------------------------
D-|---------------------------------------------------------------------------
A-|---/---/-/---------4----/-----/-----7--------8---/--/----/-12-/--/----/--16
<bài viết được chỉnh sửa lúc 13.10.2007 03:00:27 bởi GuitarVongCo >

GuitarVongCo
  • Số bài : 96
  • Điểm thưởng : 0
  • Từ: 06.01.2006
Guitar Vọng Cổ câu 1 2 3 - Dây Kép - 13.04.2006 23:58:21
Guitar Vọng Cổ câu 1 2 3 - Dây Kép



Tips để Copy & Paste vào trong Word or Wordpad: Dùng font: Courier New, size 10.

Hò (Câu 1 - Hò, Xê, Xang, Cống)
D-|----------0-5-2-5-2-0----------------------------0-5-----------------------
A-|---------2-----------2-5-3~--------------------5----3~---------------------
D-|-5----0-5------------------0----0---0-3-5-0-5-8-------0-3-5-3----5---------
G-|-----0-----------------------0-3-3---------------------------5~-3----------
D-|----------------------------------0----------------------------------------
A-|16//-/--4-/---/------/-----8----/--/----/------12--/--/------/---16--------

D-|----5-8-5-5-0---8-5-7-8-7-5-5------0-5-2-5-2-0-----------5------0----------
A-|-5-8-------------------------7n-6-5-5---------2-5-3~----5-2--2---7-5-------
D-|-------------8-8-----------8------------------------5-5-----5--------------
G-|-----------------------------------------------------0---------------------
D-|---------------------------------------------------------------------------
A-|-/------/---/--4--/-------/-/-----8-/--/------/----12--/--/--/----12-------
Xang
D-|-5------------8-5-8-7-5-----0-5-2-5-2-0---------0-5-2-5-2-0----------------
A-|--7n-7-5-5---5---------8-7-5-5---------2-5-3~----------------3~------------
D-|--------0-8-5--------------------------------5-5-----------5---------------
G-|----------------------------------------------0----------------------------
D-|---------------------------------------------------------------------------
A-|-/--/--/-4--/-/-----/------8-/--/------/----12-/--/-----/----16------------
Cống
D-|-----------0---0-8-8-7-5----0-5-2-5-2-0---------2-5------5-----------------
A-|-3~-3~-3~-2-3~--5-------7-5--5---------2-5-3~------2-3~-5-7----------------
D-|---------0----5-----------------------------5-5----------------------------
G-|---------------------------------------------0-----------------------------
D-|---------------------------------------------------------------------------
A-|---/---/--/---4-/--/---/--8--/--/------/---12-/----/---/--16---------------
Câu 2 - Xề, Xang, Xang, Hò, Hò, Xê, Xê, Xang
Xề & Xang nối liền
D-|-5------------------------------7^-7^-10~-10~10~---------------------------
A-|--7~-5-555-5-/-/-/-/--8~8~-8~10~-------------------------------------------
D-|------0---0----------------------------------------------------------------
G-|---------------------------------------------------------------------------
D-|---------------------------------------------------------------------------
A-|-/--/-/--4-/-/-/-8-/-/-/-12-/---/------/-----16----------------------------

D-|-10->17-17-17-17-17----17-14-17-14-17-12-14-9-12-10-9-0-7-0-3-5-7-5-0-5------
A-|-------------------------------------------------------------------7-5-2-5-3~
D-|------------------17-17-----------------------------------------------------5
G-|-----------------------------------------------------------------------------
D-|-----------------------------------------------------------------------------
A-|------1-----/----/----4----/-----/----------/---------8-------/----/---/----12

D-|----------------0-2-0------------------------------------------------------
A-|-------------0-2------3~---------------------------------------------------
D-|--------0-3-5--------5-----------------------------------------------------
G-|-0-3-5-7-------------------------------------------------------------------
D-|---------------------------------------------------------------------------
A-|-----/------/-----/---16---------------------------------------------------
Xang
D-|-----------0-9-5-7-9-7-5------0-5-2-5-2-0---------0-5-2-5-2-0--------------
A-|-3~-3~-3~---5-----------7-7->5-----------2-5-3~----------------3~----------
D-|-----------------------------------------------5-5-----------5-------------
G-|------------------------------------------------0--------------------------
D-|---------------------------------------------------------------------------
A-|/--/---/-4--/--/-------/--8---/---/------/----12-/--/-----/----16----------

D-|---------0---0-5-8-5----------------------------0-5------------------------
A-|-3~3~3~-2-3~--5-----7-5---------------------5------3~----------------------
D-|-------0----5----------8-7-5-8-0-0-5-3~0-5-8---------0-3-5-3---5-----------
G-|---------------------------------------------7--------------5~3------------
D-|---------------------------------------------------------------------------
A-|--/--/--/---4-/----/---/-------8-----/---/--/-/---/--/------/--16----------

D-|------------------------------------------------------------/-/--/--16-----
A-|-5^1n~0--------------------------------------------------------------------
D-|-------5~3-2-0-5n-5-3--------0-0-------------------------------------------
G-|---------------------5~-3-0-3-0-3--2h3p2-0-0-0-0-3-2-0-0--0-0--------0-----
D-|---------------------------------0--------3-3---------3--0---3-------------
A-|/--/---/---4---/-----/-------/---8----/-----/------/----12----3~-3~-1------

D-|--5->7-9-9-7-9-7-5-5-----0-5-2-5-2-0---------2-5-----5---------------------
A-|--------7---7-------7n6-5-5---------2-5-3~------2-3~5-7-5-5----------------
D-|------------------9-----------------------5-5------------------------------
G-|-------------------------------------------0-------------------------------
D-|---------------------------------------------------------------------------
A-|-/--/---/--4-/---/-/----8-/--/------/----12-/---/---/-----16---------------

D-|-5------------8-5-8-7-5-----0-5-2-5-2-0---------2-5------------------------
A-|--7~-5-555---5---------8-7-5-5---------2-5-3~------2-3~-5-7-5--------------
D-|------0---8-5--------------------------------5-5---------------------------
G-|----------------------------------------------0----------------------------
D-|---------------------------------------------------------------------------
A-|-/--/-/--4--/-/-----/------8-/--/------/----12-/---/--/-----16-------------
Xang
D-|-9-7----7-9-5------5-8-5-5-----0-5-2-5-2-0---------0-5-2-5-2-0-------------
A-|----9-10-----8~-5-8-------7n6-5-----------2-5-3~---------------3~----------
D-|--9---------------------8-----------------------5-5-----------2------------
G-|-------------------------------------------------0-------------------------
D-|---------------------------------------------------------------------------
A-|--/-/---/---4---/------/-/----8-/--/------/----12-/--/-----/---16----------
Xề (bắt đầu câu 3 - Xề, Xang, Xang, Xê, Xang, Cống, Xê, Hò)
D-|-------------------0-----------------0-------------------------------------
A-|-3n3~3~-3n3~-3~-1-3-1-0----------0--0-1~-0---------------------------------
D-|-----------------------5-3~-0-3-5~7-------5-3~0----------------------------
G-|---------------------------------------------------------------------------
D-|---------------------------------------------------------------------------
A-|/-/--/--4-/--/--/--8--/--/----/--12-/-/---/---16---------------------------
Xang
D-|-----------------------------------------5-7-8-8-5-7-8-7-5---------2-5-2-0--0----
A-|--------0-3-1-0-------------------5-8-5-8-----------------7^5-3~2----------2-2-3~
D-|--3~-0-3-------3-0-3-0-5-8-5-8-5-8------------8------------------5--------5---0--
G-|3-----------------------------------------------------------------0--------------
D-|---------------------------------------------------------------------------------
A-|-/---/------/------4-------/------/------/----8--/-------/--/---12-/---/----/--16
Xang
D-|--------0----0-3~-0-8-5-7-8-7-5------------2-0-2-5-0-----------------------
A-|-3n3~3~---1-3-1----5-----------7^5-3~-2---2----------3~--------------------
D-|---------------------------------------5-5----------5----------------------
G-|----------------------------------------0----------------------------------
D-|---------------------------------------------------------------------------
A-|/-/--/-4--/--/-/---8--/-------/--/----12-/-/-----/---16--------------------

D-|-----------------8-5-8-7-5-----0-5-2-5-2-0---------0-5---------------------
A-|-3~3~3~2-3n3~---5---------8-7-5-5---------2-5-3~------2-2-5-7-5------------
D-|-------------5-5-------------------------------5-5-----5-------------------
G-|--------------0---------------------------------0--------------------------
D-|---------------------------------------------------------------------------
A-|--/--/---/---4-/-/-----/------8-/--/------/---12--/---/-/----16------------
Xang
D-|-5------5-7-9^5-5-----0-5-2-5-2-0---------0-5-2-5-2-0----------------------
A-|--7~-5-5---------7~7-5-----------2-5-3~---------------3~-------------------
D-|------0--------9-----------------------5-5-----------5---------------------
G-|----------------------------------------0----------------------------------
D-|---------------------------------------------------------------------------
A-|-/-/--/4--/---/-/--8--/---/------/----12-/--/-----/---16-------------------
Cống
D-|-----------3-5-3~3~5-7-8-7-5--------5-2-5-2-----------2-5-----5------------
A-|-3~-3~3~2-5-----5-----------7-6-5-5--------5-2-5-3~------2-3~5-7-----------
D-|---------------------------------0-----------------5-5---------------------
G-|----------------------------------------------------0----------------------
D-|---------------------------------------------------------------------------
A-|---/--/---/----4-/---/---/------8-/---/------/----12-/---/--/--16----------

D-|-5------------8-5-8-7-5-----0-5-2-5-2-0---------2-5------------------------
A-|--7~-5-555---5---------8-7-5-5---------2-5-3~------2-3~-5-7-5--------------
D-|------0---8-5--------------------------------5-5---------------------------
G-|----------------------------------------------0----------------------------
D-|---------------------------------------------------------------------------
A-|-/-/--/--4--/-/-----/------8-/--/------/----12-/---/---/----16-------------

D-|--------5-7-9^5------5-8-5---------------------------0-5-------------------
A-|-555-5-5-------8~-5-8-----7-5-----------------------5---3~-----------------
D-|-----------------------------8-7-5-8-0-000-5-3~0-5-8------0-5-5------------
G-|-------------------------------------------------------------3-------------
D-|---------------------------------------------------------------------------
A-|---/---/--/---4---/------/---/-------8---/---/---/--12-/--/--/16-----------
<bài viết được chỉnh sửa lúc 04.10.2007 03:20:23 bởi GuitarVongCo >

GuitarVongCo
  • Số bài : 96
  • Điểm thưởng : 0
  • Từ: 06.01.2006
Guitar Vọng Cổ câu 4 5 6 - Dây Kép - 14.04.2006 00:16:43
Guitar Vọng Cổ câu 4 5 6 - Dây Kép



Tips để Copy & Paste vào trong Word or Wordpad: Dùng font: Courier New, size 10.


Hò (bắt đầu câu 4 - Hò, Xê, Xê, Hò)
D-|----------0-5-2---------------------------0-5------------------------------
A-|--------3~-----5-5-3~--------------------5---3~----------------------------
D-|-5---0-5------------0---0----0-3-5-0-5-8-------0-3-5-3----5----------------
G-|----0----------------0-3-3----------------------------5~-3-----------------
D-|--------------------------0------------------------------------------------
A-|16///--4--/---/--/--8---/--/-----/------12--/--/------/---16---------------

D-|------------------0-0------------------------0-5-2-5-20----------5----0----
A-|------------0-1-0----1~-0---------------------5--------2-5-3~---5-2-2---7-5
D-|5---0-0-3-5--------------1-3-1-0-5-3------------------------5-5----5-------
G-|-0h3-3------------------------------5--3-0-3-----------------0-------------
D-|--------------------------------------------0------------------------------
A-|/---/-----/-------4---/------/------/-------8-/--/-----/---12--/--/-/----16

D-|-5------------8-5-8-7-5-----0-5-2-5-2-0---------2-5------------------------
A-|--7n-7-5-5---5---------8-7-5-5---------2-5-3~------2-3~-5-7-5--------------
D-|--------0-8-5--------------------------------5-5---------------------------
G-|----------------------------------------------0----------------------------
D-|---------------------------------------------------------------------------
A-|-/--/--/-4--/-/-----/------8-/--/------/----12-/---/---/---16--------------

D-|--------5-7-8-7-5-7-5-----5-8-5-------------------------------0-5------------
A-|-555-5-5-------------8~5-8-----7-5---------------------------5---3~----------
D-|----------------------------------8-7-5-8-0---0---0-3-5-0-5-8-----0-3-5-3---5
G-|-------------------------------------------0-3-3-------------------------5~3-
D-|------------------------------------------------0----------------------------
A-|---/---/----/-------4--/------/---/-------8---/--/----/------/--/-/------/--16
Xề (bắt đầu câu 5 - Xề, Hò, Hò, Hò, Hò, Xê, Xê, Xề)
D-|----------------------------------------------------------------------------
A-|----------------0-----------------------------------------------------------
D-|-5-5-555-0-5-808-7-8-7-8-7-8-7^5-3~-5^-3-2-3-2--0-3-0-3-5--0-0-0-----0---0--
G-|---------------------------------------------------------5~-3-2---2h3-3p2---
D-|----------------------------------------------------------------5~--------0-
A-|/-/-/--4-----/---/-------/-------8----/------/----/-----12--/---/----/----16

D-|-----------------------------3535-7-5-7-8-8-7-5--------------------------------
A-|-------------------------3535------------------8-7-5-8-7-5---------------------
D-|-----0---------------3535----------------8----------------8-7-5-7-0-3-5-3-----5
G-|-3->7-7----------3535----------------------------------------------------5~3-0-
D-|-------7~-5353535--------------------------------------------------------------
A-|-/----/--/---4---/---/---/---8----/------/--/-----12------/-------/------/----16

D-|----------------5-2-----------0-8-7-5-5-8------5-8-------------------------
A-|-------------5-----5-5-3~-5-8~-5-----8---5--------3~-----------------------
D-|-5-5-5-5-5-5-------------0----------------8-5h8----5-----------------------
G-|---------------------------------------------------------------------------
D-|---------------------------------------------------------------------------
A-|/-/-/----4---/----/--/---8--/--/----/---12--/--/--/16----------------------

D-|-------------0-5-2-5-2-0----------------------------0----------------------
A-|--------------5---------2-5-3~---------------------5--3~-------------------
D-|--5--5--5--5------------------0-0-0-0-5-3-0-5-0-5-8--5-0-3-5-3-------------
G-|----------0---------------------------------------------------5~-3-0-------
D-|---------------------------------------------------------------------------
A-|/--/----/--4--/--/------/-----8-----/---/---/-----12-/-/------/----16------

D-|------------------------------------------0--------------------------------
A-|----------------------------------------5---3~-----------------------------
D-|----------0--0---------000-5-3~0-5-0-5-8---5-0---5-3----5------------------
G-|0--0-3-2---5~-5~5~-3--------------------------------5~-3-------------------
D-|--3------------------0-----------------------------------------------------
A-|/-/--/--4--/--/-/----8---/---/---/------12-/-/------/---16-----------------

D-|-------8------0-8-5-7-8-7-5---0-5-2-5-2-0---------2-5----------------------
A-|-5h8-10-10-8---------------7-5-----------2-5-3~------2-3~-5-7-5------------
D-|------------10~8-------------------------------5-5-------------------------
G-|------------------------------------------------0--------------------------
D-|---------------------------------------------------------------------------
A-|/--/---/-----4-/--/-------/--8-/--/------/----12-/---/---/---16------------
Xe^
D-|-5--------------8-7-5---0-5-2-5-2-0---------2-5----------------------------
A-|--7n-7-5-555---5-----7-5-----------2-5-3~------2-3~-5-7-5------------------
D-|--------0---8-5--------------------------5-5-------------------------------
G-|------------------------------------------0--------------------------------
D-|---------------------------------------------------------------------------
A-|-/--/--/---4--/-/---/--8-/--/------/----12-/---/---/----16-----------------
Xề
D-|--------5-7-8-7-5-7-5-----5-8-5-5-----0-0-3-5--5-2-5-5----0----------------
A-|-555-5-5-------------8~5-8-------7n6-5-5-5---3~-----5--0-2-3~2-------------
D-|-------------------------------8----------------------5-------0------------
G-|---------------------------------------------------------------------------
D-|---------------------------------------------------------------------------
A-|---/---/----/-------4--/------/-/----8-/----/--/---12-/--/-/--16-----------
Xề (Bắt đầu câu 6 - Xề, Xê, Xang, Cống, Xê, Xề Xê, Hò)
D-|---------------------------------------------------------------------------
A-|---------------------------------------------------------------------------
D-|-0-00000-0-7-10-7-10-7------7->5-5-3~-0h2-0--------------0-----------------
G-|-------------------------------------------4-4-2h4-2--0h2-4~-2-------------
D-|----------------------------------------------------5---------5~2-0--------
A-|/-/--/---/4-----/------/-------/---8----/--/--/-12--/----/----/---16-------

D-|-----5-7-9-9-7-9-7-9-7-9-7-9-9^7^5------0-5-----------5--------------------
A-|----------7--------
-----7---7-----7n6-5----2-5-3~----5-2--2-5-7-5----------
D-|-------------------------------------------------5-5-----5-----------------
G-|---------------------------
-----------------------0------------------------
D-|---------------------------------------------------------------------------
A-|-//---/---4--/------
-/-----/---8--/---/----/----12--/--/--/----16----------

Xang
D-|-5--------5-7-9-5-7-9-7-5---0-5-2-5-2-0---------0-5-2-5-2-0----------------
A-|--7~-5-555---------------7-5-5---------2-5-3~----------------3~------------
D-|------0--------------------------------------5-5-----------5---------------
G-|----------------------------------------------0----------------------------
D-|---------------------------------------------------------------------------
A-|-/-/--/--4--/---/-------/--8-/--/------/----12-/--/-----/----16------------
Cống
D-|-----------0-9-5-7-9-7-5-----0-5-2-5-2-0---------2-5------5----------------
A-|-3~3~3~2-3~-5-----------7-7-5-----------2-5-3~------2-3~-5-7---------------
D-|--------0-5-----------------------------------5-5--------------------------
G-|-----------------------------------------------0---------------------------
D-|---------------------------------------------------------------------------
A-|--/--/--/-4-/--/-------/--8--/---/------/----12-/---/---/--16--------------

D-|-5------5-7-9-5-5------0-5-2-5-2-----------2-5-----------------------------
A-|--7~-5-5---------7-7->5---------5-2-5-3~------2-3~-5-7-5-------------------
D-|------0--------9------------------------5-5--------------------------------
G-|-----------------------------------------0---------------------------------
D-|---------------------------------------------------------------------------
A-|-/--/-/4--/---/-/--8---/---/------/----12-/---/---/---16-------------------
Xề
D-|--------5-7-9-5------5-8-5-5-----0-0-3-5--5-2-5-5----0---------------------
A-|-555-5-5-------8~-5-8-------7n6-5-5-5---3~-----5--0-2-3~2------------------
D-|--------------------------8----------------------5-------0-----------------
G-|---------------------------------------------------------------------------
D-|---------------------------------------------------------------------------
A-|---/---/--/---4---/-----/--/----8-/----/--/---12-/--/-/--16----------------


D-|---------0-------------------------0-5-2-5-2-0---------2-5-----------------
A-|-----0-0---1-0----------------------5---------2-5-3~------2-3~-5-7-5-------
D-|-3-5~-7-------5~-3-2-3-2-0--------------------------5-5--------------------
G-|--------------------------5--3-0-3-------------------0---------------------
D-|----------------------------------0----------------------------------------
A-|--/--/-/---4--/----/------/-------8-/--/------/----12-/---/---/---16-------

D-|--------9-7-5--------5-8-5---------------------------0-5-------------------
A-|---5-5-5-------8~-5-8-----7-5---------------------5-----3~-----------------
D-|--0--------------------------8-7-5-8-0-0-5-3~0-5-8--5----0-3-5-3----5------
G-|---------------------------------------------------7------------5~-3-------
D-|---------------------------------------------------------------------------
A-|--/--/--/---4-----/------/---/-------8-----/---/--/12--/-/------/---16-----
<bài viết được chỉnh sửa lúc 04.10.2007 03:25:24 bởi GuitarVongCo >

meconhac
  • Số bài : 2
  • Điểm thưởng : 0
  • Từ: 26.04.2006
RE: Guitar Vọng Cổ Câu 4, 6 - Dây Kép Cao sang Đào - 26.04.2006 21:39:52


D-|--------77-7---3-2-2-----------5-7-9-10-9-7--------------------------------
A-|----------7-5~0---0-3-3n0-3-5-7------------10-9-7-10-9-7-0-----------------
D-|-7---7-7-------------2------------------------------------10-9-7-----------
G-|----------------------------------------------------------------10-9-------
D-|---------------------------------------------------------------------------
A-|16-///-4-/--/----/---8--/------/--------/------12--------/-------/---------



Xin chào ban:
Mình vùa mới tặp khúc nầy nhưng cảm thấy hơi lạ quá. Tiếng đàn không giống như trong mp3, nhất là khúc D3 D2, và A0. Xin bạn chỉ giùm. Cám ơn bạn nhiều nhé. Mấy khuôn đàn bạn bỏ lên đây thật là hay quá.

GuitarVongCo
  • Số bài : 96
  • Điểm thưởng : 0
  • Từ: 06.01.2006
RE: Guitar Vọng Cổ Câu 4, 6 - Dây Kép Cao sang Đào - 27.04.2006 01:38:19
Chào bạn meconhac,

Cám ơn lời khen của bạn.

Tôi đã duyệt lại tất cả các bài & mp3 đều ăn khớp với nhau.
Ngọai trừ dây đờn của bạn lên không đúng như trang đầu.

Bạn còn câu hỏi hoặc giúp ý kiến thì PM cho tôi.

Chúc bạn đờn cổ nhạc thật mùi.

Tái bút :

Xin các bạn ĐỪNG POST LÊN TRANG NÀY nhưng PM cho tôi. Tôi sẽ còn post nhiều bài lên nữa để bài post được liên tục. Mong các bạn thông cảm.

Xin cám ơn.
<bài viết được chỉnh sửa lúc 09.05.2006 02:19:56 bởi GuitarVongCo >

GuitarVongCo
  • Số bài : 96
  • Điểm thưởng : 0
  • Từ: 06.01.2006
Guitar - Một Số Bài Rao Dây Đào - 06.06.2006 01:42:38
Thường thường cải lương phải có đàn dạo hoặc rao để nghe cho mùi.
Có mùi thì người ca sĩ mới dể vô & vô cho đúng tông. Đồng thời người đàn có cơ hội để biểu diển tài năng của mình luôn.

Dưới đây một số bài rao dây đào của Nghệ sĩ Chí Tâm. Nghệ sĩ Chí Tâm có sản xuất những cuốn video tự học cải lương. Quí vị có thể mua tại Chí Tâm production để tham khảo thêm.

Chú ý khi nhấn chử XANG hơi khó viết cho nên quí vị nghe & đàn lại sao cho mùi thì được rồi.

Rao 1

D---------------12-10-9--0---12---0-7-----------7---7-----3---------0--------------------
A-10~-9-12-10~-9-------12-0-9--10~---8n----8-10~-8-7-0-3-5-5-3-----0--0------------------
D--------------------------------------7-10-------------------5~3-0----3n-0-0------------
G--------------------------------------------------------------------2-------------------
D--------------------------------------------------------------------------0-------------
A----------------------------------------------------------------------------------------

Rao 2

D----3-2h3p2-0-----3-2-0----0-2-3-0----0-----0-----0------0------------------------------
A--0----------3~-0-------3~---------3~---1-0-----0---1-0---5----0---0---0---------0------
D---3------------------------------------------3-------------5~---3-------3-2h3p2--------
G---------------------------------------------------------------------2-------------5n-5-
D----------------------------------------------------------------------------------------
A----------------------------------------------------------------------------------------

D-------------------------------------------------------0-7---0-12------------0----------
A-------------------------------------------------0---5-----0------9-12-10~-9------------
D--0------------------3-0---0-----0-------0---3-5---7------------------------------------
G----2->5-5-5-5-----5-----5---3-2-------2---5--------------------------------------------
D---------------3-3-----------------0-3--------------------------------------------------
A----------------------------------------------------------------------------------------

Rao 3

D-------------------------------------------7->10-12------8--10-12----7-8-7--------------
A-10n-10n10n10n10-10~10n(13)-9-10n-10~-9-0-8--------10~-12--------8-10-----8-8n----------
D-----------------------------------------7------------------------------------7-10------
G----------------------------------------------------------------------------------------
D----------------------------------------------------------------------------------------
A----------------------------------------------------------------------------------------

D-------7-----7-----------------------3-2h3p2-0--0---0-----------------------------------
A-8-10~---8-7---0-3-5n--5-0-----0---0----------3~-1-0--0---0-----------0-----------------
D---------------------------5~----3-------------------3-0-3-3-3n-2h3p2---------0---------
G------------------------------------------------------------2------------5n-5---2->5-5--
D----------------------------------------------------------------------------------------
A----------------------------------------------------------------------------------------

D----------------------------------------------------------------------------------------
A----------------------------------------------------------------------------------------
D---------3-------3-0-3-2-0---0---0-3-2-0---0-------------3n0----------------------------
G-5-----5---5---5-----------5---5~--------5~--3-2-0h2-3-2-----7---7----------------------
D---3-3-------3-------------------------------------------------0------------------------
A----------------------------------------------------------------------------------------

Rao 4

D-------------------------------------------------------7---7---0-3-0-----3n--2-3-2-0--0-
A-------------------------------------------------7h8-10-8-7-0-3-----0--0------------3~--
D-10n10n10n10n10n10n10n10n10~10n(13)-9-10n10~-9-10--------------------5~-3n--------------
G----------------------------------------------------------------------------------------
D----------------------------------------------------------------------------------------
A----------------------------------------------------------------------------------------


D---7-----0-----7->10-12--------10-12-14-12-15-14-12--------15-14-12----12-14-15-12------
A-5-----0----------------10~-12----------------------15~-12----------15------------------
D-----7-----3----------------------------------------------------------------------------
G----------------------------------------------------------------------------------------
D----------------------------------------------------------------------------------------
A----------------------------------------------------------------------------------------

D-15-14-12---12--12---12-----------------------------------------------------------------
A----------15--15--15----13-13n--13-12h13n(17)-12-0-10~---10n-10n10n10n10~---------------
D----------------------------------------------------------------------------------------
G----------------------------------------------------------------------------------------
D----------------------------------------------------------------------------------------
A----------------------------------------------------------------------------------------

Rao 5

D--------------------------------------8p7-7--7----7------7---7--------------0---3-2-0---
A-10n-10n10n10n10-10~10n--9-10n-10~-9-0-----10~-8-7--8-10~-8-7--------------0---------3--
D--------------------------------------------------10----------10->12-12~10n--0-3--------
G----------------------------------------------------------------------------------------
D----------------------------------------------------------------------------------------
A----------------------------------------------------------------------------------------

D-0---0---------------------------0----------------------0--------0-7-0-12---------0-----
A--1-0----0--------1n-111-1n~1-1-0-5--0---0-0-------0-1-0-5--0---5---0----9-12-10~9-----5
D------0-3-3-3n-0-0-----------------5~-0-3---3-0-0-3-------5~-7-0-------------------12-0-
G-----------2-----------------3------------2---------------------------------------------
D----------------0------------------------------0----------------------------------------
A----------------------------------------------------------------------------------------

Rao 6

D--------------------------------------3-2-0----0---0-3-0---0-------0-------0---0--------
A-10~-10~10~10~10n(13)-9--10~-10n--9-0-------3~---3~---3~1-3-3p1-1-3-3-1-0-0-3-1-5--0----
D-xang...------cống---xự--xang-xê--------------------3--------------------3-------5~-0-3-
G----------------------------------------------------------------------------------------
D----------------------------------------------------------------------------------------
A----------------------------------------------------------------------------------------

D--------------0------7-7-8p7-5~-4-7^-5~-4-4-7-5~-4-4------------------------------------
A-0-0-------1-0-5--0-8-0------------------5---0----7-3-5n--5-3--0------------------------
D----3-0-0-3-----5~-7-----------------------------------------5~-0-3---------------------
G--2-----------------------------------------------------------------2-------------------
D----------------------------------------------------------------------------------------
A----------------------------------------------------------------------------------------

D----------------------------------------------------------------------------------------
A----------------------------------------------------------------------------------------
D--------------------3-2h3p2-0----0---------0---------0---3n----------------------0------
G-222222->555555---------------5~---3-2h3p2-------3-2---5-------------------5-3-2--------
D----------------3-3--------------------------0-3------------5~-3---3-0--3-5--------5~---
A-----------------------------------------------------------------0-----5----------------

D-------------------7---8p7-8p7-777-7h8p7-7h8p7-8n----7->10-12-------8-10-12^---0--------
A------------5->7-8---0-----------------------------8---------10~-12----------8---10-8---
D-------5~-7--------------------------------------7--------------------------------------
G-----7----------------------------------------------------------------------------------
D-7--------------------------------------------------------------------------------------
A----------------------------------------------------------------------------------------

D-----0---3-5~-7->12-15^-14-12-----12-14-15-12-------------------------------------------
A---0---5---------------------15~--------------------------------------------------------
D----------------------------------------------------------------------------------------
G----------------------------------------------------------------------------------------
D----------------------------------------------------------------------------------------
A----------------------------------------------------------------------------------------

Rao 7

D----------------------------------------3-2-0--------0-----0-3-2-0---0------------------
A-10n-10n10-10-10n-10n-10n--9-10n-10~9-0-------3~---0-----0---------3~--1-0----0---------
D-------------------------------------------------------3-------------------0-3--3---3-2-
G----------------------------------------------------------------------------------2-----
D----------------------------------------------------------------------------------------
A----------------------------------------------------------------------------------------

D------------------------------------------------7-888-10^-8-7-------7-8-10^-8-7---------
A-0----------0-----------------------------8-10~---------------8-10~-------------10~-----
D-----0--2h3----0-----3---------0-----7-10-----------------------------------------------
G---5---------2-----5---5----2------7----------------------------------------------------
D----------------3--------5~--3--0-------------------------------------------------------
A----------------------------------------------------------------------------------------

D-7---0---0-----------7-----7--------0---------------------------------------------------
A---8---0--------8-10---8-7------8-0---5---5---------------------------------------------
D-----------7-10--------------10---------0-----------------------------------------------
G----------------------------------------------------------------------------------------
D----------------------------------------------------------------------------------------
A----------------------------------------------------------------------------------------
<bài viết được chỉnh sửa lúc 24.09.2006 01:18:25 bởi GuitarVongCo >

GuitarVongCo
  • Số bài : 96
  • Điểm thưởng : 0
  • Từ: 06.01.2006
Những khuôn chuyển tiếp từ Kép (Sol) qua Đào hoặc ngược lại - 29.06.2006 00:41:43

Những khuôn chuyển tiếp từ Kép (Sol) qua Đào hoặc ngược lại

Câu 1, 2 Chuyển từ dây Kép qua dây Đào

Câu 1: Đàn Dây kép - Hò, Xê, Xang,
Cống
D-|-------------------------------------------------------------------5-------
A-|------------------------------------- Đàn về cống ở những nốt này-5-7------
D-|---------------------------------------------------------------------------
G-|---------------------------------------------------------------------------
D-|---------------------------------------------------------------------------
A-|---------------------------------------------------------------------------

Câu 2: Cách thứ 1

 
Audio ở Đây

 
Xề (vẩn còn dây kép)
D-|-5----------8-5-8-5-5----0-0-3-5--5-2-5-5----0-----------------------------
A-|--7~-5-555-----------7-5--5-5---3~-----5--0-2-3~-2-------------------------
D-|------0------8-----8---------------------5--------0------------------------
G-|---------------------------------------------------------------------------
D-|---------------------------------------------------------------------------
A-|-/--/-/--4---/----/-/--8--/----/--/---12-/--/-/---16-----------------------


Xang chuyển qua dây Đào
D-|--------0------------0-3-2-0-----------------------------------------------
A-|-------0-5--0-----0-3-------1---1-3-1-0-5-3-------------1^-0---0-0-5-------
D-|----0-3---5~-3-0-3-----------3-3-----------5-3-0-3-2-0-3----0h3-3---5~-----
G-|---2--------------------------3-----------------------3--------------------
D-|0-3------------------------------------------------------------------------
A-|--/-/--/-4--/--/-----/------8-/-/-------/-----12------/---/----/----16-----

 
Câu 2: Cách thứ 2
 
Audio ở Đây
 
Xề (vẩn còn dây kép)
D-|---5----------8-5-8-7-5--5-7--8----5--8-8--5-7--8-7-5--5-----5----0--------
A-|-8~---8~7-5-5-----------8------5--8---------------------7~6-5--0-2-3~-2----
D-|---------------------------------------8--------------8-------5----------0-
G-|---------------------------------------------------------------------------
D-|---------------------------------------------------------------------------
A-|-/-/----/---4---/-------/------/-------8---/--------/--/---12-/--/-/----16-


Xang chuyển qua dây Đào
D-|--------0------------0-3-2-0-----------------------------------------------
A-|-------0-5--0-----0-3-------1---1-3-1-0-5-3-------------1-3-1-0------------
D-|----0-3---5~-3-0-3-----------3-3-----------5-3-0-3-2-0-3-------0-5~--------
G-|---2--------------------------3-----------------------3---------3----------
D-|0-3------------------------------------------------------------------------
A-|--/-/--/-4--/--/-----/------8-/-/-------/-----12------/-/---/----16--------

-

Tiếp tục đàn dây đào khuôn: Xang, Hò, Hò, Xê, Xê, Xang. Dứt câu 2.

Câu 5, 6 chuyển từ dây kép sang dây đào

 
Audio ở Đây

Câu 5: Đàn Dây kép - Hò, Xê,

D-|---------------------------------------------------------------------------
A-|-------------------------------------- Đàn Về xê ở những nôt này--5-7-5----
D-|---------------------------------------------------------------------------
G-|---------------------------------------------------------------------------
D-|---------------------------------------------------------------------------
A-|---------------------------------------------------------------------------
Xề
D-|--------5-7-8-7-5-7-5-----5-8-5-5-----0-0-3-5--5-2-5-5----0----------------
A-|-555-5-5-------------8~5-8-------7n6-5-5-5---3~-----5--0-2-3~2-------------
D-|-------------------------------8----------------------5-------0------------
G-|---------------------------------------------------------------------------
D-|---------------------------------------------------------------------------
A-|---/---/----/-------4--/------/-/----8-/----/--/---12-/--/-/--16-----------
Xề qua dây đào
D-|--------0------------0-3-2-0-------------0---------------------------------
A-|-------0-5--0-----0-3-------1---1-3-1-0-5-5-3--0--0-0----------------------
D-|----0-3---5~-3-0-3-----------3-3-------------5~-3~-2---0-2-0-2-3---~-------
G-|---2--------------------------3----------------------5~---------2----------
D-|0-3------------------------------------------------------------------------
A-|--/-/--/-4--/--/-----/------8-/-/-------/---12---/---/---/------16---------

Tiếp tục Đàn dây đào khuôn: Xê, Xang, Cống, Xê, Xề, Xê, Hò. Dứt câu 6.

Câu 1 2 Chuyển từ Đào qua Kép #1

 
Audio ở Đây

Câu 1: Dây Đào - Hò, Xê, Xang,
Cống
D-|-----------------------------------------------------------------12--------
A-|------------------------------------- Về cống ở những nốt này--12--14------
D-|---------------------------------------------------------------------------
G-|---------------------------------------------------------------------------
D-|---------------------------------------------------------------------------
A-|---------------------------------------------------------------------------
Câu 2:
Xề (Vẩn còn Đào)
D-|--12-----------------------15-12-15-14-12--------0--0--10-12---------------
A-|----14n-12--12-12-12-----12--------------15-14-12-12-12-----10~------------
D-|--------------------15-12--------------------------------------------------
G-|----------14---------------------------------------------------------------
D-|---------------------------------------------------------------------------
A-|---/---/---/------4-----/---/--------/----------8--/-------/---------------

D-|-12-9-7---7------7---------------------------------------------------------
A-|-------8-7-8-7-5~----------------------------------------------------------
D-|------------------7--------------------------------------------------------
G-|---------------------------------------------------------------------------
D-|---------------------------------------------------------------------------
A-|--/--12-/--/---/--16-------------------------------------------------------
Xang (Chuyển qua Kép)
D-|----5--8--7-5------5-8-5-5-------0-5-2-5-2-5---------0-5-2-5-2-0-----------
A-|-----5-------8~-5-8-------7n-6-5--5---------2-5-3~---------------3~--------
D-|-5----------------------8-------------------------5-5-----------5----------
G-|--0------------------------------------------------0-----------------------
D-|---------------------------------------------------------------------------
A-|-/--/--/----4---/------/-/-----8--/--/------/----12-/--/-----/---16--------
Tiêp tục Đàn dây Kép khuôn: Xang, Hò, Hò, Xê, Xê, Xang. Dứt câu 2.

Câu 1 2 Đào qua Kép #2

 
Audio ở Đây

Câu 1: Dây Đào - Hò, Xê, Xang,

Cống
D-|-----------------------------------------------------------------0-2-3-----
A-|------------------------------------- Về cống ở những nốt này-0-1-----1n---
D-|---------------------------------------------------------------------------
G-|---------------------------------------------------------------------------
D-|---------------------------------------------------------------------------
A-|---------------------------------------------------------------------------
Câu 2:
Xề (Vẩn còn Đào)
D-|-0---------------3-2-0-3-2-0-3-2-0-0----0-3-2-0-----0----------------------
A-|--1n~--0-000-0--------------------3--0-3-------1-0-3---0--0--0-----0-----0-
D-|--------------3-3------------------------------------5~-3n-2----0h3-3h2----
G-|--------2---2-------------------------------------------------5~----------2
D-|---------------------------------------------------------------------------
A-|-/--/---/--/-/--/--/-------8------/-----/------/----12--/-----/----/------/
Xang (Chuyển qua Kép)
D-|--------------------------8-5-7-8-7-5-----0-5-2-5-2-0---------0-5-2-5-2-0--
A-|-------------------------5-----------77->5-----------2-5-3~---------------3~
D-|----------------0-5-0-5-8----------------------------------5-5-----------5-
G-|-2-2-3-0-3-0-3-5--------------------------------------------0--------------
D-|---------------------------------------------------------------------------
A-|-/-----/-------/------4--/--/-------/-8---/---/------/----12-/--/-----/---16

Tiêp tục Đàn dây Kép khuôn: Xang, Hò, Hò, Xê, Xê, Xang. Dứt câu 2.

Câu 5 6 Đào qua Kép #1 (Ve xe^` o not cao)
 
Audio ở Đây

Câu 5 : Đàn Dây Đào - Hò, Xê,


D-|----------------------------------Về Xê ở những nốt này--------------------
A-|----------------------------------------------------------12-14^-12--------
D-|---------------------------------------------------------------------------
G-|---------------------------------------------------------------------------
D-|---------------------------------------------------------------------------
A-|---------------------------------------------------------------------------
Xề

D-|--12-----------------------15-12-15-14-12--------0--0--10-12---------------
A-|----14n-12--12-12-12-----12--------------15-14-12-12-12-----10~------------
D-|--------------------15-12--------------------------------------------------
G-|----------14---------------------------------------------------------------
D-|---------------------------------------------------------------------------
A-|---/---/---/------4-----/---/--------/----------8--/-------/---------------

D-|-12-9-7---7------7---------------------------------------------------------
A-|-------8-7-8-7-5~----------------------------------------------------------
D-|------------------7--------------------------------------------------------
G-|---------------------------------------------------------------------------
D-|---------------------------------------------------------------------------
A-|--/--12-/--/---/--16-------------------------------------------------------
Câu 6:
Xề (Chuyển qua Kép)
D-|----5--8--7-5------5-8-5-5-------0-0-3-5--5^-2-0---0-----------------------
A-|-----5-------8~-5-8-------7n-6-5--5-5---3~------1-0-1-0--------------------
D-|-5----------------------8------------------------------5-3~-0--------------
G-|--0------------------------------------------------------------------------
D-|---------------------------------------------------------------------------
A-|-/--/--/----4---/------/-/-----8--/----/--/---12--/-/--/---16--------------
Tiêp tục đàn dây Kép khuôn: Xê, Xang, Cống, Xê, Xề, Xê, Hò. Dứt câu 6.

 
Câu 5 6 Đào qua Kép #2 (vê1 xề ở nốt thấp)
 
Audio ở Đây

Câu 5 : Đàn Dây Đào - Hò, Xê,


D-|----------------------------------------------------------7-9^-7-----------
A-|----------------------------------Về Xê ở những nốt này--------------------
D-|---------------------------------------------------------------------------
G-|---------------------------------------------------------------------------
D-|---------------------------------------------------------------------------
A-|---------------------------------------------------------------------------
Xề
D-|-777-7-7---7-0-7-10-12------10-12--12-9-12------0-0-3-0--------------------
A-|---------8------------10~-12--------------12-8-7-3~----3~-1-0--0-----------
D-|---------------------------------12--------------------------0---3-3n-3n-3-
G-|--------------------------------------------------------------------------2
D-|---------------------------------------------------------------------------
A-|---/---/---/--------4------/----/---/------8---/-/----/--12--/---/----/--16
Câu 6

D-|--------------------------8-5-7-8-7-5---0-0-3-5--5-2-5-5----0--------------
A-|-------------------------5-----------7-5-5-5---3~-----5--0-2-3~-2----------
D-|----------------0-5-0-5-8-------------------------------5--------0---------
G-|-2-323-0-3-0-3-5-----------------------------------------------------------
D-|---------------------------------------------------------------------------
A-|-/-----/-------/------4--/--/-------/--8-/----/--/---12-/--/-/---16--------


Câu 5 6 Đào qua Kép #3(về xề ở nốt thấp)
 
Audio ở Đây

Câu 5 : Đàn Dây Đào - Hò, Xê,


D-|----------------------------------------------------------7-9^-7-----------
A-|----------------------------------Về Xê ở những nốt này--------------------
D-|---------------------------------------------------------------------------
G-|---------------------------------------------------------------------------
D-|---------------------------------------------------------------------------
A-|---------------------------------------------------------------------------
Xề
D-|-777-7-7---7-0-7-10-12------10-12--12-9-12------0-0-3-0--------------------
A-|---------8------------10~-12--------------12-8-7-3~----3~-1-0--0-----------
D-|---------------------------------12--------------------------0---3-3n-3n-3-
G-|--------------------------------------------------------------------------2
D-|---------------------------------------------------------------------------
A-|---/---/---/--------4------/----/---/------8---/-/----/--12--/---/----/--16
Câu 6

D-|--------------------------8---578--8-7-5-----5-----------------------------
A-|-------------------------5--8~---6------5-7-8-8-7-5------------------------
D-|----------------0-5-0-5-8--8------8----------------8-7-5-----------0-------
G-|-2-323-0-3-0-3-5----------------------------------------8-7-5~7-0h3-3------
D-|---------------------------------------------------------------------0-----
A-|-/-----/-------/------4--/-/-/---8-/---/----/----12----/----/---/----16----

Rôi qua khuôn Xê này

D-|--------------------------3~-5-7-8-8-7-8-7-5---0-5---------0-5----0-5------
A-|----------------------3535------------------7-5---2-5-3~------2-3~---7-5---
D-|------------------3535------------8---------------------5-5----------------
G-|-3-20320-320-03535---------------------------------------0-----------------
D-|------------3--------------------------------------------------------------
A-|---/---/----/---4---/---/---/-----8--/------/-----/----12-/---/--/---16----

Tiêp tục Đàn dây Kép khuôn: Xang, Cống, Xê, Xề, Xê, Hò. Dứt câu 6.

<bài viết được chỉnh sửa lúc 14.09.2007 00:47:30 bởi GuitarVongCo >

Thay đổi trang: 12345 > | Trang 1 của 5 trang, bài viết từ 1 đến 30 trên tổng số 123 bài trong đề mục